Oops, an error
Loading. Please wait.

Perros tab

34 views 1 this week
no commentswrite comment
1 2 3 4 5
3 more votes to show rating
add to favorites
×
Save as Personal and add changes to this tab that will be seen only by you. Learn more ›
×
You can save this tab as Personal to edit and correct it or add notes. All changes will be seen only by you. Learn more »
launch autoscroll
font size
0
reset
how to read this tab
guitar tuner
edit
Autoscroll
slow
fast
+/-
esc
set tempo
stop
Me costo mucho sacarla asi que, que la disfruten
y puedan tocarla porque es un tema muy copado.(elghiri)
INTRO:
    D      E         D
1 --2-2--2-4--4-4--4-5--5-5--5--9---7---5---4--
2 --3-3--3-5--5-5--5-7--7-7--7--10--9---7---5--
3 ---------------------------------------------
4 -----0---------0---------0------0---0---0---0
5 ---------------------------------------------
6 ---------------------------------------------
    A    (sus4)              A    (sus4)
1 -----0-----2-4--2-0-----0-----0-----0-4--2-0-----0/2/0---
2 -----2-2/3----------2/3-------2-2/3----------2/3-------2-
3 -----2------------------------2--------------------------
4 ---------------------------------------------------------
5 --0------------------------0-----------------------------
6 ---------------------------------------------------------
    D
1 ----7---2--4--2--0--4--5-5------5----9---7---5---4---
2 ---5--------------------------7---7--10--9---7---5---
3 -----------------------------------------------------
4 --0-----0-----0-----0-----0----------0---0---0---0---
5 -----------------------------------------------------
6 -----------------------------------------------------
    A    (sus4)
1 -----0-----2-4--2-0-----0--------------------------------
2 -----2-2/3----------2/3----------------------------------
3 -----2-----------------------11/9-7-9/7-6-7/6-4-6/4-2--2-
4 ---------------------------------------------------------
5 --0--------------------------0---------------------------
6 ---------------------------------------------------------

(estrofa igual que la intro)
   D            E*          D*
1) Cada vez que sale el sol
                          A      (sus4)
se viene la noche para el viejo...
  D           E*       D*
...sin escudo ni farol
                       A           (sus4) A
traza la rutina con su viejo...camión

      A
2)Los barrios ardiendo y
     G               Bm
su espalda recibe el castigo...
   E(riff1)  D
la sombra lo espera,
  E(riff1)   D    Dsus4 D
allá es otra cuadra...
      A     Asus A
...el piensa...

RIFF1
    E         D
1 ------7---------5----
2 --7/9--7/5--5/7---5/3


2)el retrovisor que le muestra
y esconde el camino...
que ya se ha perdido
tan solo es parte...
...de un vidrio

(intro)

1)Pobres animales que
siempre vuelven al mismo arbolito
vuelta a la casa a las 6:00
la mujer se fue a hacer los
manguitos...vende ropa...

2)Los barrios ardiendo y
su espalda recibe el castigo...
la sombra lo espera,
allá es otra cuadra...
...el piensa...

2)Entonces sale a la calle
desnudo de abrigo...
dorado sin miedo,
puteando a los perros...de arriba...

CODA:
   DO            SOL-LA   DO            SOL
5 -3-2-3-2-3-2----5---7----3-2-3-2-3-2---5
6 ----------------3---5------------------3
   DO             SOL-LA   SOL
5 -3-2-3-2-3-2----5---7-----5-5-5-5-5-5-5-5
6 ----------------3---5-----3-3-3-3-3-3-3-3
   D                                               _
2 -2-3-3--2--0-2-0-----2-3-3--2--0-2-3/5/3          |
3 ------------------2---------------------          |
   D                                                |>2 veces
2 -2-3-3--2--0-2-0--------------------------------- |
3 ------------------2---2-2-1---1-1-2---2-2-1---1-1_|

2)el retrovisor que le muestra
y esconde el camino...
que ya se ha perdido
tan solo es parte...
PASAJE:
    A                       D
5 --0-0---2-2---3-3---4-4---5!

1)Pobres animales que
                         A
siempre vuelven al mismo arbolito
    A                    G  A
5 ----4--5--5/7--5--4--------
6 --5-----------------5--3--5

2)Entonces sale a la calle...

E*: XX0454
D*: XX0775
------------------------------------------------------
EL GHIRI... vamo 8b

            
            
Suggest correction
Creating personal tab
Creating personal tab
You can edit any tab online and save it as your Personal.

You can edit, replace or remove any tab part or add personal notes – all changes will be seen only by you.

Personal tabs can be accessed anytime from any device, even offline.
Learn more »
Give kudos to tab author, rate the tab!
1 2 3 4 5
comments
print report bad tab
guest
Wanna post a correction for this tab? Suggest correction