Oops, an error
Loading. Please wait.

Santos chords

50 views 1 this week
no commentswrite comment
1 2 3 4 5
3 more votes to show rating
add to favorites
×
Save as Personal and add changes to this tab that will be seen only by you. Learn more ›
×
You can save this tab as Personal to edit and correct it or add notes. All changes will be seen only by you. Learn more »
launch autoscroll
font size
0
reset
transpose
0
reset
simplify chords
display chords
guitar tuner
edit
Autoscroll
slow
fast
+/-
esc
set tempo
stop
Strumming
There is no strumming pattern for this song yet. and get +5 IQ
Intro:  Dm - F - Em - Dm7

Am    C     A#7maj/B
Bajo santos de mi oración
         C#7maj/D            Am
y me arrodillo frente a tu cara
           Am   C       G
y en esa tierra arde a mi oración,
          F
estás atado a una columna de sed
     D/F#
acribillado sin motivo y ninguna fe,
          Am   G  D        A#7maj/B  Fm6
y esa extraña verdad y esa turbia visión
               Dm7                   Em7
que hoy desaparece, que hoy desaparece.


Dm - F - Em - Dm7 - Dm - Em - F - G - Em


Am        C    A#7maj/B
Nace del barro esta mi flor
          C#7maj/D       Am
y cuando toca el aire se quema
        Am    C        G
y va cayendo seca y rueda a tus pies
           F
esta conciencia es tan ilógica sé
            D/F#
que ahí me ahogo me encuentro

y vuelvo a nacer,
       Am  G   D       A#7maj/B    Fm6
un retrato de vos, un paisaje una flor,
              D7-9
los días de fiebre.

  Dm     Em         G         Am
Mientras miras cristales estallándome
Dm             F              Em
hundido tan lejano y mas fugaz
         D7-9
vuelvo a tu raíz

         F
Estás atado a una columna de sed
       D/F#
acribillado sin motivo y ninguna fe,
          Am  G   Bm7     A#7maj/B   Fm6
y esa extraña verdad y esa turbia visión
               Dm7                    Em7
que hoy desaparece, que hoy desaparece.


  Dm      Em        G         Am
Mientras miras cristales estallándome
Dm             F              Em
hundido tan lejano y mas fugaz
         Am
vuelvo a tu raíz


Dm        Em        G         Am
Mientras miras cristales estallándome
      Dm           F     Em   D9    Fm7maj/D
tan fugaz vuelvo a tu raíz

Final:  Am - C - D9 - Fm7maj/D

          1|-----|-----|-----|-----|-----O
          2|-----|-----|--3--|-----|-----
          3|-----|--2--|-----|-----|-----
A#7maj/B  4|-----|-----|--3--|-----|-----
          5|-----|--2--|-----|-----|-----
          6|-----|-----|-----|-----|-----X

C#7maj/D  1|-----|-----|-----|-----|-----O
          2|-----|-----|--6--|-----|-----
          3|-----|--5--|-----|-----|-----
          4|-----|-----|--6--|-----|-----
          5|-----|--5--|-----|-----|-----
          6|-----|-----|-----|-----|-----X


D/F#      1|-----|--2--|-----|-----|-----
          2|-----|-----|--3--|-----|-----
          3|-----|--2--|-----|-----|-----
          4|-----|-----|-----|-----|-----X
          5|-----|-----|-----|-----|-----X
          6|-----|--2--|-----|-----|-----


Fm6       1|--1--|-----|-----|-----|-----
          2|-----|-----|--3--|-----|-----
          3|--1--|-----|-----|-----|-----
          4|-----|-----|--3--|-----|-----
          5|-----|-----|--3--|-----|-----
          6|--1--|-----|-----|-----|-----


D7-9      1|-----|-----|-----|-----|-----
          2|--1--|-----|-----|-----|-----
          3|-----|--2--|-----|-----|-----
          4|-----|-----|-----|-----|-----O
          5|-----|-----|-----|-----|-----X
          6|-----|-----|-----|-----|-----X


D9        1|-----|-----|-----|-----|-----
          2|-----|-----|--3--|-----|-----
          3|-----|--2--|-----|-----|-----
          4|-----|-----|-----|-----|-----0
          5|-----|-----|-----|-----|-----X
          6|-----|-----|-----|-----|-----X


Fm7maj/D  1|-----|-----|-----|-----|-----
          2|--1--|-----|-----|-----|-----
          3|--1--|-----|-----|-----|-----
          4|-----|-----|-----|-----|-----0
          5|-----|-----|-----|-----|-----X
          6|-----|-----|-----|-----|-----X

            
            
Suggest correction
Creating personal tab
Creating personal tab
You can edit any tab online and save it as your Personal.

You can edit, replace or remove any tab part or add personal notes – all changes will be seen only by you.

Personal tabs can be accessed anytime from any device, even offline.
Learn more »
Give kudos to tab author, rate the tab!
1 2 3 4 5
comments
print report bad tab
guest
Wanna post a correction for this tab? Suggest correction