Oops, an error
Loading. Please wait.

Vueltas tab

28 views 1 this week
no commentswrite comment
1 2 3 4 5
3 more votes to show rating
add to favorites
×
Save as Personal and add changes to this tab that will be seen only by you. Learn more ›
×
You can save this tab as Personal to edit and correct it or add notes. All changes will be seen only by you. Learn more »
launch autoscroll
font size
0
reset
how to read this tab
guitar tuner
edit
Autoscroll
slow
fast
+/-
esc
set tempo
stop
e|---------------|            e|-8-6-----------|
B|---------------|            B|-----9-8-------|
G|-----5-------3-| Riff 1     G|---------8v----| Arreglo 1
D|-3/5---5-0-3---|            D|---------------|
A|---------------|            A|---------------|
E|---------------|            E|---------------|

e|-------------|              e|-8-6-----------|
B|-------------|              B|-----9-8-8h9---|
G|-5-5-5-------| Riff 2       G|---------------| Arreglo 2
D|-5-5-5-5/8-8-|              D|---------------|
A|-3-3-3-5/8-8-|              A|---------------|
E|-------3/6-6-|              E|---------------|

e|----------------------------|
B|----------------------------|
G|----------------------------| Riff 3
D|----------------------------|
A|-3-3-3----------3-3-3-------|
E|-------3/6-6--3-------3/6-6-|

Riff 1
Alguien que detenga este veneno,
alguien que se deje lastimar.
Alguien que me arranque este pellejo,
alguien que se deje lastimar.

Eb Bb Fm         (G#)             arreglo 1  C5 D#5 Bb5
Da a  le alas a esta furia sin razón...

Riff 2

Juego contra el ego y la palabra,
rompo toda frase en su esplendor
inventando un golpe que desgarra
sólo es un día sin color.

Eb  Bb    Fm              G#           arreglo 1 
Me exor ciza un lápiz quebrado en un renglón
   G#          Eb                Bb         Fm arreglo 2
la hora se hizo larga y me estrangula el rencor
   G#             Eb               Bb
la hora se hizo extraña y me estrangula...

Eb
 No hay nada en esas caras,
                         Fm
no encuentras el motivo para existir;
C#
 la versión del amor se desgasta
                    Eb
mucho, nada y seguir.

Riff 2

Voy a ser perverso en mis deseos,
nada me interesa bajo el sol
quiero componer mi pensamiento
tengo que volver a ser quien soy.

Eb   Bb   Fm             G#        arreglo 1
Fue mi herida y la salvación esta canción
  G#           Eb               Bb        Fm  arreglo 2
la tarde se fue consuiendo en llamas y ahí venció...
  G#           Eb               Bb
la tarde se fue consuiendo en llamas...

No hay nada en esas caras,
no encuentras el motivo para existir;
la versión del amor se desgasta
mucho, nada y seguir.

La paz me da la espalda
y entiendo que el silencio te pueda herir
hoy no soy el que gira en el aire
para hacerte sonreír.

Inter nº 1, x4:
D#5 D5 C5

Bb5 C5 Bb5 G#5

e|---------------------------------------------------|
B|-4h6p4v-----------------------4h6p4v---------------|
G|---------------------------------------------------|
D|-----------------4-------3--------------------4----|
A|---------------4---4---3---3----------------4---4--|
E|---------1-1/2-------1----------------1-1/2--------|

C#5   C5-C#5     D#5   D#5-D5

Eb Fm      C#
         ...vivo haciendo esa vuelta en el aire
         Eb
para hacerte sonreír...

Riff 3
Alguien que detenga este veneno,
alguien que se deje lastimar.

Dale alas a esta furia sin razón...
que todo lo que amo en un momento...

No hay nada en esas caras,
no encuentras el motivo para existir;
la versión del amor se desgasta
mucho, nada y seguir.

La paz me da la espalda
y entiendo que el silencio te pueda herir
hoy no soy el que gira en el aire
para hacerte sonreír.

Inter nº 2, varias veces, con el coro de fondo:
     2 veces                    1 vez
e|--------------|-8h9-8-6-8---8-6---6--------------|
B|--------------|-----------------9---9-8----------|
G|-5/8-8/12-8-3-|-------------------------8/12-8-3-|
D|--------------|----------------------------------|
A|--------------|----------------------------------|
E|--------------|----------------------------------|

Final con el Riff 2 x3.
Luego, el coro sin música.

            
            
Suggest correction
Creating personal tab
Creating personal tab
You can edit any tab online and save it as your Personal.

You can edit, replace or remove any tab part or add personal notes – all changes will be seen only by you.

Personal tabs can be accessed anytime from any device, even offline.
Learn more »
Give kudos to tab author, rate the tab!
1 2 3 4 5
comments
print report bad tab
guest
Wanna post a correction for this tab? Suggest correction