Oops, an error
Loading. Please wait.

Sweet bass

457 views 6 this week
2 commentsread comments
1 2 3 4 5
1 last vote to show rating
add to favorites
×
Save as Personal and add changes to this tab that will be seen only by you. Learn more ›
×
You can save this tab as Personal to edit and correct it or add notes. All changes will be seen only by you. Learn more »
launch autoscroll
font size
0
reset
guitar tuner
edit
Autoscroll
slow
fast
+/-
esc
set tempo
stop
Standard Tuning

[Intro]
G|-----------------------------------------------------------------------------|
D|-----------------------------------------------------------------------------|
A|----------2-2--4-4-----------------------------------------------------------|
E|-2-2--4-4--------------------------------------------------------------------|(X2)

[Verse](0:21)
G|---------------------------------------------------------------------------|
D|---------------------------------------------------------------------------|
A|----------2-2--4-4----------2-2--4-44--------------------------------------|
E|-2-2--4-4----------2-2--4-4----------4-------------------------------------|

[Chorus](0:42)
G|--------------------------------------------------------------------------|
D|--------------------------------5-5--5-5----------------------------------|
A|--------------------2-2--4-4--44-----------------------2-2--4-4--4-4------|
E|-2-2--2-2--4-4--4-4----------------------2-2--2-2--4-4--------------------|

[Verse 2](1:17)
G|---------------------------------------------------------------------|
D|---------------------------------------------------------------------|
A|----------2-2--4-44------------2-2--4-44----------2-2--4-44----------|
E|-2-2--4-4----------4--2-2--4-4-----------2-2--4-4--------------------|

G|---------------------------------------------------------------------------|
D|---------------------------------------------------------------------------|
A|----------2-2--4-444-------------------------------------------------------|
E|-2-2--4-4------------------------------------------------------------------|

[Chorus 2](1:56)
G|-----------------------------------------------------------------------------|
D|-----------------------------------------------------------------------------|
A|--------------------2-2--4-4--------------------2-2--4-4---------------------|
E|-2-2--2-2--4-4--4-4----------2-2--2-2--4-4--4-4----------2-2--2-2------------|

[Outro](2:31)
G|---------------------------------------------------------------------------------|Here The Bass Line Suffer
D|-----------------------------------------------------------------------5-5--5-5--|Some Variations
A|--------------------2-2--4-4-------------------------------2-2--4-4--4-----------|
E|-2-2--2-2--4-4--4-4----------2-2--2-2--2-2--2-2--4-4--4-4------------------------|

G|-----------------------------------------------------------------------------|
D|-----------------------------------5-5--5-5----------------------------------|
A|-2-4----------------------2-2--4-4-------------------------------------------|
E|----2-2--2-2---2-4-4--4-4----------------------------------------------------|

G|-------------------------------------------------------------------------------------|
D|------------------------------------5-5--5-5-------------------------------5-5--5-5--|
A|-----------------------2-2--4-4--24---------------------------2-2--4-4---------------|
E|-2-2--2-2--2-4-4--4-4-------------------------2-2--2-2--2-4-2------------------------|

G|---------------------------------------------------------------------------|
D|--------------------------------------------------------------5-5----------|
A|--------------------2-2--4-4--------------------2-2--2-2--4-4--------------|
E|-2-2--2-2--4-4--4-4----------2-2--2-2--2-2--2-2-------------------2--------|

            
            
Suggest correction
Creating personal tab
Creating personal tab
You can edit any tab online and save it as your Personal.

You can edit, replace or remove any tab part or add personal notes – all changes will be seen only by you.

Personal tabs can be accessed anytime from any device, even offline.
Learn more »
Give kudos to tab author, rate the tab!
1 2 3 4 5
comments
print report bad tab
2 comments total.
0 reply
Rioghnneagh 104 Sep 22, 2017 09:34 PM

I love cigs after sex and the bass in their music makes me want to be alive

0 reply
vazquezmichael34 10 Dec 13, 2017 08:26 PM

it sounds better instead of the 5th fret on the 2nd string play the 4th fret on the same 2nd string

guest
You may want to rate the tab now too:
select rating
Wanna post a correction for this tab? Suggest correction