Oops, an error
Loading. Please wait.

Love Of The Loved bass

73 views 1 this week
no commentswrite comment
1 2 3 4 5
3 more votes to show rating
add to favorites
×
Save as Personal and add changes to this tab that will be seen only by you. Learn more ›
×
You can save this tab as Personal to edit and correct it or add notes. All changes will be seen only by you. Learn more »
launch autoscroll
font size
0
reset
guitar tuner
edit
Autoscroll
slow
fast
+/-
esc
set tempo
stop
Author
Difficulty
Love Of The Loved
This is how it started with a Paul McCartney penned song for Cilla Black
Way back in 1963. Reached number 35 UK charts. Tab by bass50611. Remember
seeing her in The Beatles Christmas Show December 1963. Still think it’s 
her best song. My tab not perfect but near enough. 
Comments bass254@btinternet.com 

Intro:                         .                 
G|-------------|-----------------------------------
D|---TRUMPET---|-8-8--8-8-8--8-8---8-8--8-8-8--8-8-
A|----START----|-----------------------------------
E|-------------|-----------------------------------

Verse 1:
G|-------------------------------------------------------------------
D|-8--8-8------------------------------------------------------------
A|--------5--5-5---4--4-4---6--6-6---------------------1--1-1--------
E|----------------------------------6--6-6---2-2---1-1--------1--1-1-

Verse 2:
G|----------------------------------------------------------------------
D|----------------------------------------------------------------------
A|-1--1-1---5--5-5---4--4-4---6--6-6--------------------1--1-1---6--6-6-
E|-----------------------------------6--6-6---2-2---1-1-----------------

Middle 8:
G|-------------------------------------------------------------
D|--------3--3-3---4--4-4---3--3-3--------3--3-3--------3--3-3-
A|-4--4-4--------------------------4--4-4--------3--3-3--------
E|-------------------------------------------------------------

Verse 3:
G|---------------------------------------------------------------------
D|---------------------------------------------------------------------
A|-1--1-1---5--5-5---4--4-4---6--6-6--------------------1--1-1---------
E|-----------------------------------6--6-6---2-2---1-1--------1-1-1-1-

Instrumental Interlude:
G|-------------------------------------------------------------------------
D|-------------------------------------------------------------------------
A|-1-1-1-1---5-5-5-5---4-4-4-4--6-6-6-6---------------------1-1-1--6-6-6-6-
E|--------------------------------------6-6-6-6---2-2---1-1----1-----------

Repeat Middle 8:

Verse 4:
G|------------------------------------------------------------------------
D|------------------------------------------------------------------------
A|-1--1-1---5--5-5---4--4-4---6--6-6---------------------1--1-1-----------
E|-----------------------------------6--6-6---2-2---1-1---------2-2---1-1-

Outro:      .         .
G|-----------------------------------------------------------
D|-----------------------------------------------------------
A|-1--1-1-----------------------1--1-1---1--1-1---1--1-1-----
E|----------2---------1------------------------------------6-


            
            
Suggest correction
Creating personal tab
Creating personal tab
You can edit any tab online and save it as your Personal.

You can edit, replace or remove any tab part or add personal notes – all changes will be seen only by you.

Personal tabs can be accessed anytime from any device, even offline.
Learn more »
Give kudos to tab author, rate the tab!
1 2 3 4 5
comments
print report bad tab
guest
You may want to rate the tab now too:
select rating
Wanna post a correction for this tab? Suggest correction