Oops, an error
Loading. Please wait.
We have an official Dont Know What You Got Till Its Gone tab made by UG professional guitarists. Check out the tab »
×
1,037 views 6 this week
no commentswrite comment
1 2 3 4 5
1 last vote to show rating
add to favorites
×
Save as Personal and add changes to this tab that will be seen only by you. Learn more ›
×
You can save this tab as Personal to edit and correct it or add notes. All changes will be seen only by you. Learn more »
launch autoscroll
font size
0
reset
transpose
0
reset
simplify chords
display chords
guitar tuner
backing track
0:00
0:00
edit
Autoscroll
slow
fast
+/-
esc
set tempo
stop
Author
Difficulty
intermediate
Strumming
There is no strumming pattern for this song yet. and get +5 IQ
--------------------------------------------------------------------------------------------------------------
                             Dont Know What You Got Till Its Gone - Cinderella
--------------------------------------------------------------------------------------------------------------
Tuning: STANDARD (EADGBe)


Riff #1
e:-0---------------|
B:-0h2p0-----------|
G:-----------------|
D:-----------------| 
A:-----------------|
E:---------0-------|

Riff #2
e:--------------------------------------------|
B:-----2-----------------------2--------------|
G:-4~~----4~-2~--------2----4~~--4~-2~--------|
D:--------------4~-2-4---4~~-----------4~~----|
A:--------------------------------------------|
E:--------------------------------------------|

Riff #3
e:--------------|
B:--------------|
G:--------------|
D:--------------| 
A:-5~~-4--2~~---|
E:--------------|

Riff #4
e:--------------|
B:--------------|
G:--------------|
D:--------------| 
A:--------------|
E:-2-----0------|

Riff #5
e:--------------|
B:--------------|
G:--------------|
D:-4-----2------| 
A:--------------|
E:--------------|

Riff #6
e:-0------------|
B:---0-----0----|
G:-----2-----2--|
D:-------2------| 
A:--------------|
E:--------------|


Asus2

E                 Esus4   E    F#m    Riff #1
I can't tell ya baby what went wrong
        E           Esus4   E        F#m
I can't make you feel       what you felt
   E    D                Asus2
So long ago, I'll let it show
E                   Esus4   E     F#m  Riff #1
I can't give you back what's been hurt
           E         Esus4     E
Heartaches come and go and all that's
F#m  E       D                 Asus2
left are the words I can't let go
Riff #2
If we take some time to think it over baby
Take some time let me know
       E5           D5
If you really wanna go

A5                  E5            Riff #3
Don't know what you got till it's gone
A5                 E5          Riff #4  D5
Don't know what it is I did so wrong
A5                   E5
Now I know what I've got
               Riff #5  D5
It's just this song
       A5            E5
And it ain't easy to get back
         Riff #4  D5
Takes so long

A

E                 Esus4         E      F#m
I can't feel the things that cause you pain
E                Esus4    E    F#m
I can't clear my heart of your love
   E          D               Asus2
It falls like rain, ain't the same
E              Esus4   E  F#m
I hear you calling    far away
E                 Esus4    E   F#m
Tearing through my soul I just can't
     E       D             Asus2  Riff #2
Take another day, Who's to blame
If we take some time to think it over baby
Take some time let me know
       E5           D5
If you really wanna go


A5                  E5            Riff #3
Don't know what you got till it's gone
A5                 E5          Riff #4  D5
Don't know what it is I did so wrong
A5                   E5
Now I know what I've got
               Riff #5  D5
It's just this song
       A5            E5
And it ain't easy to get back
         Riff #4  D5
Takes so long


C#5
Do you wanna see me beggin' baby
A5                     Riff #6
Can't you give me just one more day
C#5                                    E5
Can't you see my heart's been draggin' lately
                                          D5
I've been lookin' for the words to say

Solo
e:---------------------------------------7--------------------|
B:-------------------------------------7---10-7-10b12--7~/0---|
G:-------------------------7-----9b10-------------------------|
D:---------------7-9-7-7h9~---9-------------------------------|
A:-------0-5-7-9----------------------------------------------|
E:-12/0-------------------------------------------------------|
                               
e:--------------------------------------------------------------------|
B:-0-2-3p2h3-2-3-5-3-2h3p2----2---------------------------------------|
G:--------------------------4---2-4-2-4-2~-----2-4-4b5r--2h4p2--------|
D:-----------------------------------------2h4------------------4~/9--| 
A:--------------------------------------------------------------------|
E:--------------------------------------------------------------------|

e:--------------------------------------------------------------------------------------17-------------|
B:---7-8-10-8-7h8p7-----------10-----------------------14-15-17-15-14h15p14-------17b19----17b19~------|
G:--7---------------9-7-9b10-----9b10~/19-----------14----------------------16-14----------------------|
D:-7----------------------------------------17--16-----------------------------------------------------| 
A:-----------------------------------------------------------------------------------------------------|
E:-----------------------------------------------------------------------------------------------------|

e:--------------------------------------------------------------------------------12--12-----12-----12--------|
B:15p14----15p14----15p14------------------------------------------10-12-10-12b13-----12b13--12b13--12b13-10/0|
G:------16-------16-------16-14-16-14~------------------------7/10--------------------------------------------|
D:-------------------------------------16-16--16--14-14-14/0--------------------------------------------------|
A:------------------------------------------------------------------------------------------------------------|
E:------------------------------------------------------------------------------------------------------------|
                                  Riff #3
Don't know what you got till it's gone
A5                 E5           Riff #4  D5
Don't know what it is I did so wrong
A5                E5
Now I know what I got
               Riff #5  D5
It's just this song
A5                    E5
And it ain't easy to get back
         Riff #4  D5
Takes so long

===========================================================================================================

            
            
Suggest correction
Creating personal tab
Creating personal tab
You can edit any tab online and save it as your Personal.

You can edit, replace or remove any tab part or add personal notes – all changes will be seen only by you.

Personal tabs can be accessed anytime from any device, even offline.
Learn more »
Give kudos to tab author, rate the tab!
1 2 3 4 5
comments
print report bad tab
guest
You may want to rate the tab now too:
select rating
Wanna post a correction for this tab? Suggest correction