Oops, an error
Loading. Please wait.

Night Songs bass

version 2
version 2

Whole song

Interactive

866 views 3 this week
2 commentsread comments
1 2 3 4 5
1 last vote to show rating
add to favorites
×
Save as Personal and add changes to this tab that will be seen only by you. Learn more ›
×
You can save this tab as Personal to edit and correct it or add notes. All changes will be seen only by you. Learn more »
launch autoscroll
font size
0
reset
guitar tuner
edit
Autoscroll
slow
fast
+/-
esc
set tempo
stop
Author
Difficulty
-------------------------------------------------------------------------------
                        Night Songs - Cinderella
-------------------------------------------------------------------------------

From the album: Night Songs (1986)

Tabbed by: ChrisT

Tuning: standard

Intro                   Repeat x3 
G|-------------------------------|------------|
D|o-----------------------------o|------------|
A|o--2-2------------------------o|------------|
E|-------------------------------|--5---4-----|

                                    Repeat x2
G|-------------------------------------------|
D|o-----------------------------------------o|
A|o--0h2---2---0h2---2---0h2---2------------o|
E|---------------------------------5-5-4-----|

Verse 1                             Repeat x2
G|-------------------------------------------|
D|o-----------------------------------------o|
A|o--0h2---2---0h2---2---0h2---2------------o|
E|---------------------------------5-5-4-----|

Chorus                        Repeat x3
G|-------------------------------------|-----------------|
D|o-----------------------------------o|-----------------|
A|o-----------------------------------o|--5------7---7---|
E|---0-5-0-1-2-2-2-2-2-2-2-2-2-2-2-2---|-------0---0-----|

                                   Repeat x4    
G|------------------------------------------|
D|o----------------------------------------o|
A|o--0h2---2---0h2---2---0h2---2-----------o|
E|--------------------------------5-5-4-----|

Verse 2                             Repeat x2
G|-------------------------------------------|
D|o-----------------------------------------o|
A|o--0h2---2---0h2---2---0h2---2------------o|
E|---------------------------------5-5-4-----|

Chorus                        Repeat x3
G|-------------------------------------|-----------------|
D|o-----------------------------------o|-----------------|
A|o-----------------------------------o|--5------7---7---|
E|---0-5-0-1-2-2-2-2-2-2-2-2-2-2-2-2---|-------0---0-----|

                                   Repeat x2    
G|------------------------------------------|
D|o----------------------------------------o|
A|o--0h2---2---0h2---2---0h2---2-----------o|
E|--------------------------------5-5-4-----|

Guitar Solo                                               Repeat x4 
G|--------------------------|--------------------------------------|
D|--------------------------|o------------------------------------o|
A|--------------------------|o--0-5-0-1-2-2-2-2-2-2-2-2-2-2-2-2---o| 
E|--0-0---0-0---0-0---0-0---|--------------------------------------|

Chorus                        Repeat x3
G|-------------------------------------|-----------------|
D|o-----------------------------------o|-----------------|
A|o-----------------------------------o|--5------7---7---|
E|---0-5-0-1-2-2-2-2-2-2-2-2-2-2-2-2---|-------0---0-----|

Outro                             Repeat x7
G|-----------------------------------------|
D|o---------------------------------------o|
A|o--0h2---2---0h2---2---0h2---2----------o|
E|---------------------------------5-5-4---|


===============================================================================

Please rate or comment.....

            
            
Suggest correction
Creating personal tab
Creating personal tab
You can edit any tab online and save it as your Personal.

You can edit, replace or remove any tab part or add personal notes – all changes will be seen only by you.

Personal tabs can be accessed anytime from any device, even offline.
Learn more »
Give kudos to tab author, rate the tab!
1 2 3 4 5
comments
print report bad tab
2 comments total.
0 reply
nelsonjunior.ne 21 May 03, 2013 02:29 PM

Thanks a lot! :)

0 reply
blizzard_of_oz 32 Aug 25, 2015 07:22 AM

G|-------------------------------------|-----------------|
D|o-----------------------------------o|-----------------|
A|o-----------------------------------o|--5------7---7---|
E|---5-2-0-2-2-2-2-2-2-2-2-2-2-2-2-2---|-------0---0-----|

guest
You may want to rate the tab now too:
select rating
Wanna post a correction for this tab? Suggest correction