Oops, an error
Loading. Please wait.

Frozen Creek tab

version 1
version 1

Whole song

26,423 views 9 this week
4 commentsread comments
1 2 3 4 5
x 3
add to favorites
×
Save as Personal and add changes to this tab that will be seen only by you. Learn more ›
×
You can save this tab as Personal to edit and correct it or add notes. All changes will be seen only by you. Learn more »
launch autoscroll
font size
0
reset
how to read this tab
guitar tuner
edit
Autoscroll
slow
fast
+/-
esc
set tempo
stop
Artist: Circa Survive
Song: Frozen Creek
Tabbed By: Matt Florio; www.myspace.com/mattflorio2
Email: Shempashland@yahoo.com

Tuning: 
Guitar 1
Half Step Down

Guitar 2
If in Standard with a Capo on 4th Fret
If in Half Step Down (like Circa plays) Capo 5th Fret


Hey, this is the correct tab for Frozen Creek. 
This song is a new song off of Circa Survive's upcoming album. 
I am 100% positive that they play this song this way because I've seen them play it this way.
Please enjoy and contact me for any questions or issues!
Thank You.

Chords:
(in relation to chords with the Capo)
Em 022030 & 075000
Dsus x54050
Asus x02030
Bm x2x030
G 3x0030 & 355x00

Intro/Verse
Guitar 1 (Colin) is Silent until the end of the Chorus

Guitar 2 (Brandan)
e--0000-0-0-000000--000000000000000000--|
b--3333-3-3-000000--333300333300333355--|
g--0000-0-0-xxxxxx--000000000000000000--|
d--2222-0-2-555555--222222222222222244--|
a--2222-x---555555--333333333333333355--|
e--0000-3---333333----------------------|
"..drive way there sits a house..."

Pre Chorus
e--0---------------0----|
b--5---------------3----|
g--0---------------0----|
d--4---------------2----|
a--5---------------2----|
e------------------0----|
"I made a promise..anything..."

Chorus
e-0--0--0--0--0------|
b-3--3--3--5--0------|
g-0--0--0--0--0------|
d-2--x--2--4--5------|
a-0--2--3--5--7------|
e-------------0------|
"frozen creek, i would like to take you there..."

Then lead guitar comes in:
(Chorus Part through out song)
eb-------------15p12-------------|
bb--8p5-------------12h13p12-----|
gb-----4h5p4----------------14---|
db-----------7-------------------|
ab-------------------------------|
eb-------------------------------|
"..frozen creek, oh!"

Interlude (same as Intro/Verses)
Guitar 1
eb--7~--------------------------|
bb----8~------------------------|
gb------9~--7s9~-7s9~-----------|
db-------------------10~-9~-7~--|
ab------------------------------|
eb------------------------------|

Guitar 2 is the same

I have no part for the Pre Chorus so play this:
Guitar 1
eb-------------8-7---------------|
bb--8~-10~-8~-----10-8-10s13-13~-|
gb-----------9~------------------|
db-------------------------------|
ab-------------------------------|
eb-------------------------------|

Then the Chorus with both Guitars

The Outro is just Brendan's Chorus
e-0--0--0--0--0------|
b-3--3--3--5--0------|
g-0--0--0--0--0------|
d-2--x--2--4--5------|
a-0--2--3--5--7------|
e-------------0------|
"I would like to take you their"

            
            
Suggest correction
Creating personal tab
Creating personal tab
You can edit any tab online and save it as your Personal.

You can edit, replace or remove any tab part or add personal notes – all changes will be seen only by you.

Personal tabs can be accessed anytime from any device, even offline.
Learn more »
Give kudos to tab author, rate the tab!
1 2 3 4 5
comments
print report bad tab
4 comments total. Showing first comments.
0 reply
WordsworthESP 40 Apr 25, 2010 02:04 PM

Not bad, but the intro/verse is wrong. This is how you play it:

|-0--0-0-0-0-0-0---0--0---0--0-0---0--0-0-0--0-0-0-0-|
|-0--0-3—3/5-5-5---5--5---5--5-5--p0--0-0-0--0-0-0-0-|
|-0--0-0-------0---0--0---0--0-0---0--0-0-0--0-0-0-0-|
|-2--2-2-------0---0--0---0--0-0---0--0-0-0--0-0-0-0-|
|-2--2-2------(0)-(0)(0)--5--5-5---5--5-5-5--5-5-5-5-|
|-0--0-0-------5---5--5------------3--3-3-3--3-3-3-3-|

|---------------------------|-----------|
|-0--0-3-3p0--0-0--0--3-3p0-|-3-3/5-5---|
|-0--0-0-0----0-0--0--0-0---|-0-0/0-0---|
|-2--2-2-2----2-2--2--2-2---|-2-2/4-4---|
|-3--3-3-3----3-3--3--3-3---|-3-3/5-5---|
|---------------------------|-----------|

-2 reply
mattplayscheap 2,400 May 03, 2010 11:06 AM

Nah bro I've seen them play it plus what you wrote is half of what I did there's no real different

+1 reply
WordsworthESP 40 Sep 12, 2010 09:35 PM

Nah, bro. He never hits the second fret on the D string, nor does he use the fifth.

Those notes aren't there, yet the open D is. Just because your ear isn't keen doesn't mean there's no difference, you just can't hear it.

guest
You may want to rate the tab now too:
select rating
Wanna post a correction for this tab? Suggest correction