Oops, an error
Loading. Please wait.

The Difference Between Medicine And Poison Is In The Dose bass

version 1
version 1

Whole song

Interactive

5,489 views 3 this week
1 commentread comment
1 2 3 4 5
1 last vote to show rating
add to favorites
×
Save as Personal and add changes to this tab that will be seen only by you. Learn more ›
×
You can save this tab as Personal to edit and correct it or add notes. All changes will be seen only by you. Learn more »
launch autoscroll
font size
0
reset
guitar tuner
edit
Autoscroll
slow
fast
+/-
esc
set tempo
stop
-------------------------------------------------------------------------------
  THE DIFFERENCE BETWEEN MEDICINE AND POISON IS IN THE DOSE - Circa Survive
-------------------------------------------------------------------------------

========================================
I'm pretty sure this is perfectly accurate.
Feel free to rate or comment.
========================================

Tabbed By : Chris Huff
E-mail: chrisxhuff@gmail.com

Tuning: drop-D (DADG)

INTRO
bass starts at about (0:10)
(these are tens & an eleven)
G|---------------------------------------------------------------------|
D|---------------------------------------------------------------------|
A|--------------------------------------------------------------8------|
D|-55---3h55---3h55---3h55/8---1010---8h1010---8h1010---8h1010----(10)-| (x2)

G|----------------------------------------------------|
D|----------------------------------------------------|
A|----------------------------------------6/11~~~~~~~\| (slides down into v1)
D|-88---5h88---5h88---5h88-8-8-66-6-666-6-------------|

VERSE 1
here you'll "repeat the first line" (ha, ha.)
G|---------------------------------------------------------------------|
D|---------------------------------------------------------------------|
A|--------------------------------------------------------------8------|
D|-55---3h55---3h55---3h55/8---1010---8h1010---8h1010---8h1010----(10)-| (x2)

same thing again
"This is paralysis..."
G|----------------------------------------------------|
D|----------------------------------------------------|
A|----------------------------------------6/11~~~~~~~\| (slides down into chorus)
D|-88---5h88---5h88---5h88-8-8-66-6-666-6-------------|

CHORUS ONE
"Well don't call..."
('x24' means 24 times. (ex: 5555555...))
G|--------------------------------------------------------------------------|
D|--------------------------------------------------------------------------|
A|----------------------1(x12)-------/6(x12)-5(x12)-1(x12)-0(x12)/3(x12)----|
D|-5(x24)-3(x24)-1(x12)--------3(x24)------------------------------------3~~|

PRE-CHORUS
(exactly the same as INTRO)
                          "...Accomplishments are transient"
G|---------------------------------------------------------------------|
D|---------------------------------------------------------------------|
A|--------------------------------------------------------------8------|
D|-55---3h55---3h55---3h55/8---1010---8h1010---8h1010---8h1010----(10)-| (x2)

G|----------------------------------------------------|
D|----------------------------------------------------|
A|----------------------------------------6/11~~~~~~~\| (slides down into chorus)
D|-88---5h88---5h88---5h88-8-8-66-6-666-6-------------|

CHORUS TWO
(exactly the same as CHORUS ONE)

BRIDGE
G|-------------------------------------|
D|-------------------------------------|
A|------------3h5~~~~------------5~~~~~|
D|-5~~~~~~~~~~-------0~~~~~~~~~~~------|

G|-------------------------------------------|
D|-------------------------------------------|
A|------------3h5----------------1~~~~~------|
D|-5~~~~~~~~~~-------0~~~~~~~~~~~------3~~~~~|

"they pull me in, but..."            "transient..."
G|-----------------------|          G|-----|
D|-----------------------|          D|-----|
A|-3~~~~~~~~~~6~~~~~~~~~~|(x2) then A|8~~~~|
D|-----------------------|          D|-----|

CHORUS ONE
"Well don't call..."
G|---------------------------------------------------------------|
D|---------------------------------------------------------------|
A|----------------------1(x12)-------/6(x12)-5(x12)-1(x12)-0(x12)|
D|-5(x24)-3(x24)-1(x12)--------3(x24)----------------------------|

         "Did you ever wish you were?"
G|-----------------------------------------|---||
D|-----------------------------------------|---||
A|-0(x12)/3(x24)/6(x24)-3(x12)-3-3-3-------|---||
D|-----------------------------------3~~~~~|5~~||


| /  slide up
| \  slide down
| h  hammer-on
| p  pull-off
| ~  vibrato
| +  harmonic
| (x#) play # times
===============================================================================

            
            
Suggest correction
Creating personal tab
Creating personal tab
You can edit any tab online and save it as your Personal.

You can edit, replace or remove any tab part or add personal notes – all changes will be seen only by you.

Personal tabs can be accessed anytime from any device, even offline.
Learn more »
Give kudos to tab author, rate the tab!
1 2 3 4 5
comments
print report bad tab
1 comment total.
0 reply
mattyboy77 51 Oct 22, 2009 02:19 PM

Ahh, very good. I learned this by ear at first, but yours is more accurate. Great tab, thanks for the help. =D

guest
You may want to rate the tab now too:
select rating
Wanna post a correction for this tab? Suggest correction