Oops, an error
Loading. Please wait.

Fire That Burns bass

1,069 views 6 this week
no commentswrite comment
1 2 3 4 5
x 3
add to favorites
×
Save as Personal and add changes to this tab that will be seen only by you. Learn more ›
×
You can save this tab as Personal to edit and correct it or add notes. All changes will be seen only by you. Learn more »
launch autoscroll
font size
0
reset
guitar tuner
edit
Autoscroll
slow
fast
+/-
esc
set tempo
stop
[Intro] - [00:00]

F#|----------------|----------------|----------------|  
C#|----------------|----------------|----------------|    
G#|----------------|----------------|----------------|    
D#|-3---3---3---3--|-3---3---3---3//|15~~------------|  (Let the 15 ring for 4 bars) 



[Verse] - [00:08]

F#|-------12~~-----|----------------|-------16~~-----|----------------|
C#|----12----------|----------------|----16----------|----------------|
G#|-10-------------|----------------|-14-------------|----------------|
D#|----------------|----------------|----------------|----------------|  \\
                                                                          X2
F#|-------14~~-----|----------------|-------11~~-----|--------12------|  //
C#|----14----------|----------------|----11----------|-----------12---|
G#|-12-------------|----------------|-9--------------|--------------12|
D#|----------------|----------------|----------------|----------------|
                                                              ^^^^^^^^
                                                              Play first time only

[Pre-Chorus] - [00:31]

F#|----------------|----------------|----------------|----------------|
C#|----------------|----------------|----------------|----------------|
G#|----------------|----------------|----------------|----------------|
D#|-3---3---3---3--|-3---3---3-3-3-3|-5---5---5---5--|-5---5---5-5-5-5|

F#|----------------|----------------|----------------|----------------|
C#|----------------|----------------|----------------|----------------|
G#|----------------|----------------|----------------|----------------|
D#|-7---7---7---7--|-7---7---7-7-7-7|-5~--5~--5~--5~-|-5~--5~--5~--5~-|

F#|----------------|----------------|----------------|----------------|
C#|----------------|----------------|----------------|----------------|
G#|----------------|----------------|----------------|----------------|
D#|-3---3---3---3--|-3---3---3-3-3-3|-5---5---5---5--|-5---5---5-5-5-5|

F#|----------------|----------------|----------------|----------------|
C#|----------------|----------------|----------------|----------------|
G#|----------------|----------------|----------------|----------------|
D#|-7-7-7-7-7-7-7-7|-7-7-7-7-7-7-7-7|-5-5-5-5-5-5-5-5|-5-5-5-5-5-5-5.-|



[Chorus] - [00:54]

F#|----------------|----------------|----------------|----------------|
C#|----------------|----------------|----------------|----------------|
G#|-7---7-7--------|-7---7----7-----|----------------|----------------|
D#|-----------0~---|------------0~--|-3---3-3---3---3|-3---3---3---3--|   \\
                                                                           X2
F#|----------------|----------------|----------------|----------------|   //
C#|----------------|----------------|----------------|----------------|
G#|----------------|----------------|----------------|----------------|
D#|-7---7-7---7---7|-7---7---7---7--|-5---5-5---5---5|-5---5---5---5--|



[Pre-Verse] - [01:18]

F#|---------------------|------------------------|
C#|---------------------|------------------------|
G#|-10-10-10-10-10-10-10|-10-10-10-10-10-10-10-10|
D#|---------------------|------------------------|

F#|----------------|----------------|----------------|----------------|
C#|----------------|----------------|----------------|----------------|
G#|-7-7-7-7-7-7-7-7|-7-7-7-7-7-7-7-7|----------------|----------------|
D#|----------------|----------------|-7-7-7-7-7-7-7-7|-7-7-7-7-7-7-7-7|

F#|----------------|----------------|----------------|----------------|
C#|----------------|----------------|----------------|----------------|
G#|----------------|----------------|----------------|----------------|
D#|-5-5-5-5-5-5-5-5|-5-5-5-5-5-5-5-5|//15~~----------|---------------.|



[Verse] - [01:32]

F#|----------------|   \
C#|----------------|   X7
G#|----------------|   X7
D#|----------------|   /

F#|----------------|
C#|----------------|
G#|-------9-7-----0|
D#|-----------9-7--|

F#|----------------|----------------|----------------|----------------|
C#|-9~~------------|----------------|-16~~-----------|----------------|
G#|----------------|----------------|----------------|----------------|
D#|----------------|----------------|----------------|----------------|

F#|----------------|-14~~-----------|----------------|----------------|
C#|-14~~-----------|----------------|----------------|----------------|
G#|----------------|----------------|-9~~------------|----------------|
D#|----------------|----------------|----------------|----------------|



[Pre-Chorus] - [01:55]

F#|----------------|----------------|----------------|----------------|
C#|----------------|----------------|----------------|----------------|
G#|----------------|----------------|----------------|----------------|
D#|-3---3---3---3--|-3---3---3-3-3-3|-5---5---5---5--|-5---5---5-5-5-5|

F#|----------------|----------------|----------------|----------------|
C#|----------------|----------------|----------------|----------------|
G#|----------------|----------------|----------------|----------------|
D#|-7---7---7---7--|-7---7---7-7-7-7|-5~--5~--5~--5~-|-5~--5~--5~--5~-|

F#|----------------|----------------|----------------|----------------|
C#|----------------|----------------|----------------|----------------|
G#|----------------|----------------|----------------|----------------|
D#|-3---3---3---3--|-3---3---3-3-3-3|-5---5---5---5--|-5---5---5-5-5-5|

F#|----------------|----------------|----------------|----------------|
C#|----------------|----------------|----------------|----------------|
G#|----------------|----------------|----------------|----------------|
D#|-7-7-7-7-7-7-7-7|-7-7-7-7-7-7-7-7|-5-5-5-5-5-5-5-5|-5-5-5-5-5-5-5.-|



[Chorus] - [02:18]

F#|----------------|----------------|----------------|----------------|
C#|----------------|----------------|----------------|----------------|
G#|-7---7-7--------|-7---7----7-----|----------------|----------------|
D#|-----------0~---|------------0~--|-3---3-3---3---3|-3---3---3---3--|   \\
                                                                           X2
F#|----------------|----------------|----------------|----------------|   //
C#|----------------|----------------|----------------|----------------|
G#|----------------|----------------|----------------|----------------|
D#|-7---7-7---7---7|-7---7---7---7--|-5---5-5---5---5|-5---5---5---5--|



[Break] - [02:41]

F#|----------------|----------------|----------------|----------------|
C#|----------------|----------------|----------------|----------------|
G#|-10~~-----------|----------------|-7~~------------|----------------|
D#|----------------|----------------|----------------|----------------|

F#|----------------|----------------|----------------|----------------|
C#|----------------|----------------|----------------|----------------|
G#|----------------|----------------|----------------|----------------|
D#|-7~~------------|----------------|-5~~------------|----------------|

F#|----------------|----------------|----------------|----------------|
C#|----------------|----------------|----------------|----------------|
G#|-10--10--10--10-|-10--10--10--10-|-7---7---7---7--|-7---7---7---7--|
D#|----------------|----------------|----------------|----------------|

F#|----------------|----------------|----------------|----------------|
C#|----------------|----------------|----------------|----------------|
G#|----------------|----------------|----------------|----------------|
D#|-7---7---7---7--|-7---7---7---7--|-5-5-5-5-5-5-5-5|-5-5-5-5-5-5-5-5|

F#|---------------------|------------------------|
C#|---------------------|------------------------|
G#|-10-10-10-10-10-10-10|-10-10-10-10-10-10-10-10|
D#|---------------------|------------------------|

F#|----------------|----------------|----------------|----------------|
C#|----------------|----------------|----------------|----------------|
G#|-7-7-7-7-7-7-7-7|-7-7-7-7-7-7-7-7|----------------|----------------|
D#|----------------|----------------|-7-7-7-7-7-7-7-7|-7-7-7-7-7-7-7-7|

F#|----------------|----------------|
C#|----------------|----------------|
G#|----------------|----------------|
D#|-5-5-5-5-5-5-5-5|-5-5-5-5-5-5-5-5|



[Chorus] - [03:16]

F#|----------------|----------------|--------------------|------------------------|
C#|----------------|----------------|--------------------|------------------------|
G#|-7-7-7-7-7-7-7-7|-7-7-7-7-7-7-7-7|10-10-10-10-10-10-10|-10-10-10-10-10-10-10-10|
D#|----------------|----------------|--------------------|------------------------|

F#|----------------|----------------|----------------|----------------|
C#|----------------|----------------|----------------|----------------|
G#|----------------|----------------|----------------|----------------|
D#|-7-7-7-7-7-7-7-7|-7-7-7-7-7-7-7-7|-5-5-5-5-5-5-5-5|-5-5-5-5-5-5-5-5|

F#|----------------|----------------|--------------------|------------------------|
C#|----------------|----------------|--------------------|------------------------|
G#|-7-7-7-7-7-7-7-7|-7-7-7-7-9-9-9-9|10-10-10-10-10-10-10|-10-10-10-10-12-12-12-12|
D#|----------------|----------------|--------------------|------------------------|

F#|---------------------|------------------------|
C#|---------------------|------------------------|
G#|-14-14-14-14-14-14-14|-14-14-14-14-14-14-14-14|
D#|---------------------|------------------------|

F#|---------------------|------------------------|
C#|---------------------|------------------------|
G#|-16-16-16-16-16-16-16|-16-16-16-16-16-16-16-16|
D#|---------------------|------------------------|

F#|---------------------|------------------------|
C#|---------------------|------------------------|
G#|---------------------|------------------------|
D#|-3~~-----------------|------------------------|


************************************

| x   Dead note
| g   Grace note
| (n) Ghost note
| h   Hammer-on
| p   Pull-off
| r   Release
| >   Accented note
| t   Tapping
| b   Bend
| br  Bend release
| pb  Pre-bend
| pbr Pre-bend release
| /   Slide up
| \   Slide down
| ~   Vibrato
| s   Slap
| P   Pop
| PM  Palm mute
| TR  Trill
| N   Tremolo

************************************

            
            
Suggest correction
Creating personal tab
Creating personal tab
You can edit any tab online and save it as your Personal.

You can edit, replace or remove any tab part or add personal notes – all changes will be seen only by you.

Personal tabs can be accessed anytime from any device, even offline.
Learn more »
Give kudos to tab author, rate the tab!
1 2 3 4 5
comments
print report bad tab
guest
You may want to rate the tab now too:
select rating
Wanna post a correction for this tab? Suggest correction