Oops, an error
Loading. Please wait.

World Up My Ass tab

3,503 views 6 this week
3 commentsread comments
1 2 3 4 5
x 6
add to favorites
×
Save as Personal and add changes to this tab that will be seen only by you. Learn more ›
×
You can save this tab as Personal to edit and correct it or add notes. All changes will be seen only by you. Learn more »
launch autoscroll
font size
0
reset
how to read this tab
guitar tuner
edit
Autoscroll
slow
fast
+/-
esc
set tempo
stop
song: world up my ass
by: circle jerks

verse
E------------------------------------------------------|
B------------------------------------------------------|
G------------------------------------------------------|
D------------------------------------1313131313131313--|
A--1414141414141414-1313131313131313-1111111111111111--|
E--1212121212121212-1111111111111111-------------------|

chorus
E-------------------------------------------------------|
B-------------------------------------------------------|
G-------------------------------------------------------|
D--14141414----------14141414----------------5-------5--|
A--12121212-14141414-12121212-14141414--5-5--3--5-5--3--|
E-----------12121212----------12121212--3-3-----3-3-----|

timing:
verse...2x
chorus..2x
verse...4x
chorus..2x
solo....?
verse...2x
chorus..2x

this is the whole song but the solo. i know its right because i have the slog movie with
the circle jerks in it and i can see the guitar players hands. i cant get the solo, its
too hard to learn by ear and in the slog movie i cant see his hands because hes being
pulled into the pit(gnarly performance). so if i get the solo soon ill put it up but for
now just go crazy on the strings cause thats practically what hes doing. also the slog
movie is a gnarly video, i recomend it to anyone whose into OC or underground punk rock
(circle jerks,black flag,sin 34,circle one,fear,redd kross,etc...)

            
            
Suggest correction
Creating personal tab
Creating personal tab
You can edit any tab online and save it as your Personal.

You can edit, replace or remove any tab part or add personal notes – all changes will be seen only by you.

Personal tabs can be accessed anytime from any device, even offline.
Learn more »
comments
print report bad tab
3 comments total.
0 reply
timeforbutt 31 Dec 10, 2005 11:02 PM

completely wrong

0 reply
MusicIsBliss 143 Sep 13, 2008 11:34 PM

actually mr. butt, this is exactly correct, thanks unregistered!

0 reply
Uunster 52 Apr 26, 2009 10:06 PM

actually the chorus is wrong... same chords but the count is off...
E-------------------------------------------------------|
B-----------------------------------------|
G-----------------------------------------|
D--14-14-------141414- --------5-------5--|
A--12-12-14-14-121212-14--5-5--3--5-5--3--|
E--------12-12--------12--3-3-----3-3-----|

like that...

guest
Wanna post a correction for this tab? Suggest correction