Oops, an error
Loading. Please wait.

Cerrando Puertas tab

by Cirse
165 views 1 this week
no commentswrite comment
1 2 3 4 5
3 more votes to show rating
add to favorites
×
Save as Personal and add changes to this tab that will be seen only by you. Learn more ›
×
You can save this tab as Personal to edit and correct it or add notes. All changes will be seen only by you. Learn more »
launch autoscroll
font size
0
reset
how to read this tab
guitar tuner
edit
Autoscroll
slow
fast
+/-
esc
set tempo
stop
(Intro)

e|------------------        e|-------------------
B|---5-4-5---5--4-5-   x3   B|---5-4-5-7-5-4-5---   x1
G|-6-------6--------        G|-4---------------6-

e|-------7-----------       e|-------------------
B|-9-7-9---9-7-9-7---  x3   B|-9-7-9---9-7-9-----   x1
G|-----------------6-       G|-------6-------6-6-

C#                A                     E                   B
  No estas alerta, solo miras hacia atras,  son muestras de tu inseguridad
C#              A                  E                     B
  y tus defensas ya no pueden soportar, que no haya intencion de reaccionar
A   E    B         A   E    B
    escondiendo te vas deshaciendo...

Estribillo
E           C#          A            E            B
  El tiempo va cerrando puertas, desafiando todo lo que vos buscas
E           C#           A             E           B
  y sin pensar estas tan cerca, de olvidarte de lo que siempre
    F#       A B
esperas encontrar

e|-------7-----------       e|-------------------
B|-9-7-9---9-7-9-7---  x3   B|-9-7-9---9-7-9-----   x1
G|-----------------6-       G|-------6-------6-6-

C#                 A                    E               B
  No es que no piensas que lo vas a mejorar disparan promesas al hablar
C#              A                     E                      B
  son tus palabras que no vas a poder perdonar perdiendote a sorbos la
verdad
A   E    B         A   E    B
    y mintiendo te vas coprimiendo


Estribillo
E           C#          A            E           B
  El tiempo va cerrando puertas, desafiando todo lo que vos buscas
E           C#           A             E           B
  y sin pensar estas tan cerca, de olvidarte de lo que siempre
    F#       A B
esperas encontrar


solo 1
e|---------4-4-4-4-------------------------4-4-4-4-----------------
B|-----------------7-7-7-7-5-5-5-5-----------------7-7-7-7-5-5-5-5-
G|-6-6-6-6-------------------------6-6-6-6-------------------------

e|-----------------------------------------------------------------
B|-7-7-7-7-7-7-7-7-----------------4-4-4-4-5-5-5-5-7-7-7-7-5-5-5-5-
G|-----------------6-6-6-6-6-6-6-6---------------------------------

e|---------4-4-4-4-------------------------4-4-4-4-----------------
B|-----------------7-7-7-7-5-5-5-5-----------------7-7-7-7-5-5-5-5-
G|-6-6-6-6-------------------------6-6-6-6-------------------------

e|-7-7-7-7-7-7-7-7-------------------------------------------------
B|---------------------------------4-4-4-4-5-5-5-5-7-7-7-7-5-5-5-5-
G|-----------------6-6-6-6-6-6-6-6--------------------------------6

C#   E          A      B
     Te veras caer por nada que alcanzar
C#   E            A              B
     y soñarlo no es igual que hacerlo realidad


solo 2 (?)
C#  A  E  B    x2

A   E    B         A   E    B
    y mintiendo te vas coprimiendo
   A   E    B          A   E    B
te vas escondiendo, te vas deshaciendo

Estribillo
E           C#          A            E           B
  El tiempo va cerrando puertas, desafiando todo lo que vos buscas
E           C#           A             E           B
  y sin pensar estas tan cerca, de olvidarte de lo que siempre
    F#       A B
esperas encontrar.

            
            
Suggest correction
Creating personal tab
Creating personal tab
You can edit any tab online and save it as your Personal.

You can edit, replace or remove any tab part or add personal notes – all changes will be seen only by you.

Personal tabs can be accessed anytime from any device, even offline.
Learn more »
Give kudos to tab author, rate the tab!
1 2 3 4 5
comments
print report bad tab
guest
Wanna post a correction for this tab? Suggest correction