Oops, an error
Loading. Please wait.

Contradicciones tab

by Cirse
88 views 1 this week
no commentswrite comment
1 2 3 4 5
3 more votes to show rating
add to favorites
×
Save as Personal and add changes to this tab that will be seen only by you. Learn more ›
×
You can save this tab as Personal to edit and correct it or add notes. All changes will be seen only by you. Learn more »
launch autoscroll
font size
0
reset
how to read this tab
guitar tuner
edit
Autoscroll
slow
fast
+/-
esc
set tempo
stop
(Intro)
e|----------------------        e|-------7-------7------
B|-----------5---7------   x3   B|---7-------7-------7--
G|---6---7-----------6--        G|-4---4---4---4---4----
D|-4---4---4---4---4----        D|----------------------

-------------------------------------------------------

B|-----------5---7------
G|---6---7-----------6--   x2
D|-4---4---4---4---4----
Se que a veces cuesta ver

e|-----------------------------7-------7------
B|-----------5---7---------7-------7-------7--
G|---6---7-----------6---4---4---4---4---4----
D|-4---4---4---4---4--------------------------
y que sientes que estás por enloquecer.

E

F#/E    D   A   F#/E  D    A   F#/E
        Pon tus ganas para revivir,
D    A       B           A
esas que enterraste para no salir.
D               B
   Algo no anda bien y besas el suelo...

Estribillo
F#                A
   ¿Qué crees que vas a hacer?
E          B
   Ya no tenemos tiempo
F#            D
   Se quiebra tu razón
     A            E
   y te pensas quedar adentro.


F#/E    D   A        F#/E  D  A   F#/E  D
            Es posible
A        B            A
que esta vez intentes encastrar...


F#/E    D   A   F#/E  D    A   F#/E
        Pon tus ganas para revivir,
D    A       B           A
esas que enterraste para no salir.
D               B
   Algo no anda bien y besas el suelo...

Estribillo
F#                A
   ¿Qué crees que vas a hacer?
E          B
   Ya no tenemos tiempo
F#            D
   Se quiebra tu razón
     A            E
   y te pensas quedar adentro.
F#               A       E       B
    ¿Qué esperas entender para salir corriendo?
D               E
Alguien va a mostrarte la verdad.

Solo 1(?)
F#/E  D   A  x3
B  A

Solo 2
e|----------------------        e|-------7-------7------
B|-----------5---7------   x3   B|---7-------7-------7--
G|---6---7-----------6--        G|-4---4---4---4---4----
D|-4---4---4---4---4----        D|----------------------

e|----------------------        e|-------7-------7------
B|-----------5---7------   x3   B|---7-------7-------7--
G|---6---7-----------6--        G|-4---4---4---4---4----
D|-4---4---4---4---4----        D|----------------------
Busca las razones de tus elecciones...

B  F#

F# A  D       A    F#/E
Re-su-cita en vida
F# A  D     A    F#/E
Sa-ca las espinas
F#  A  D       A  F#/E   B  D E
Que la luz del día       ce-da.

Estribillo
F#                A
   ¿Qué crees que vas a hacer?
E          B
   Ya no tenemos tiempo
F#            D
   Se quiebra tu razón
     A            E
   y te pensas quedar adentro.
F#               A       E       B
    ¿Qué esperas entender para salir corriendo?
D               E
Alguien va a mostrarte la verdad.

F#/E  D   A   F#

            
            
Suggest correction
Creating personal tab
Creating personal tab
You can edit any tab online and save it as your Personal.

You can edit, replace or remove any tab part or add personal notes – all changes will be seen only by you.

Personal tabs can be accessed anytime from any device, even offline.
Learn more »
Give kudos to tab author, rate the tab!
1 2 3 4 5
comments
print report bad tab
guest
Wanna post a correction for this tab? Suggest correction