Oops, an error
Loading. Please wait.

Im Sick Of Waiting tab

version 1
version 1

Whole song

Video

by Citizen
2,129 views 12 this week
no commentswrite comment
1 2 3 4 5
x 5
add to favorites
×
Save as Personal and add changes to this tab that will be seen only by you. Learn more ›
×
You can save this tab as Personal to edit and correct it or add notes. All changes will be seen only by you. Learn more »
launch autoscroll
font size
0
reset
how to read this tab
guitar tuner
edit
Autoscroll
slow
fast
+/-
esc
set tempo
stop
-------------------------------------------------------------------------------
                        Im Sick Of Waiting - Citizen
-------------------------------------------------------------------------------
Tabbed by: Connor Jackaman
Check out my cover of this if you're stuck on strumming patterns! 
https://www.youtube.com/watch?v=Tx0ugtqG4Gk

Tuning: Drop C 

The song is in 3/4 timing which makes a big difference on how the verse strumming is emphasised, so
leave a comment on my video if you cannot copy what I play and I'll try and explain it as best I can! 
It is not constant alternate strumming like chords, it has rests and downstroke emphasis which links with
part of the snare (I think) but check out the video if you have any problems.

Also, you can incorporate the top strings to get the full version of the chord, so from anywhere after the
intro I would either use these shapes (the same works with the chords on the 4th and 6th frets) 

D|-----|       D|-8---|
A|-----|       A|-11--|
F|-10--|  OR   F|-10--|
C|-8---|       C|-8---|
G|-8---|       G|-8---|
C|-8---|       C|-8---|

Useful for at the end of a verse for example.

Anyway heres the TAB.

Intro:

D|---------------------------------------------------------------------------|
A|---------------------------------------------------------------------------|
F|-----------------------------------8---------------------------------------|
C|-8-8-8-8-8-8-8-8-8-8---8-8-8-8-8---8---------------------------------------|
G|-8-8-8-8-8-8-8-8-8-8---8-8-8-8-8---6---------------------------------------|
C|-8-8-8-8-8-8-8-8-8-8---6-6-6-6-6-------------------------------------------|

Verse: 
'I don't care enough..'

The numbers in brackets relate to how many TOTAL strums there are, check vid
for timings, rests and which notes are emphasised. 
 
D|---------------------------------------------------------------------------|
A|---------------------------------------------------------------------------|
F|---------------------------------------------------------------------------|
C|-8--------6--------4--------6----------------------------------------------|
G|-8-(x20)--6-(x20)--4-(x20)--6-(x23)----------------------------------------|
C|-8--------6--------4--------6----------------------------------------------|

Breakdown:

-Chords:

D|---------------------------------------------------------------------------|
A|---------------------------------------------------------------------------|
F|--3-------6-------5--------------------------------------------------------|  
C|--x-------x-------x--------------------------------------------------------|
G|--4-------8-------6--------------------------------------------------------|
C|--4-------8-------6--------------------------------------------------------|

-Guitar Melody:                                                                  (x4) FOR BOTH CHORDS 
                                                                                     AND MELODY 
D|---------------------------------------------------------------------------|
A|---------2------1------1---------------------------------------------------|
F|--3-------------------------3----1----1h3----------------------------------|
C|---------------------------------------------------------------------------|
G|---------------------------------------------------------------------------|
C|---------------------------------------------------------------------------|

'Nowhere to hide' verse:

D|---------------------------------------------------------------------------|
A|---------------------------------------------------------------------------|
F|---------------------------------------------------------------------------|  (x2)
C|--4--------8--------6------------------------------------------------------|
G|--4-(x20)--8-(x10)--6-(x10)------------------------------------------------|
C|--4--------8--------6------------------------------------------------------|

End Section:

D|---------------------------------------------------------------------------|
A|---------------------------------------------------------------------------|
F|---------------------------------------------------------------------------|
C|--8--------4--------1---------(x4)----8------------------------------------|
G|--8-(x20)--4-(x10)--1-(x10)-----------8-(x23)------------------------------|
C|--8--------4--------1-----------------8------------------------------------|


************************************

| /   slide up
| \   slide down
| h   hammer-on
| p   pull-off
| ~   vibrato
| +   harmonic
| x   Mute note
| b   Bend
| pb  Pre-bend
| br  Bend release
| pbr Pre-bend release
| brb Bend release bend

************************************

            
            
Suggest correction
Creating personal tab
Creating personal tab
You can edit any tab online and save it as your Personal.

You can edit, replace or remove any tab part or add personal notes – all changes will be seen only by you.

Personal tabs can be accessed anytime from any device, even offline.
Learn more »
comments
print report bad tab
guest
You may want to rate the tab now too:
select rating
Wanna post a correction for this tab? Suggest correction