Oops, an error
Loading. Please wait.

Confessions tab

version 4
version 4

Whole song

11,131 views 57 this week
2 commentsread comments
1 2 3 4 5
x 14
add to favorites
×
Save as Personal and add changes to this tab that will be seen only by you. Learn more ›
×
You can save this tab as Personal to edit and correct it or add notes. All changes will be seen only by you. Learn more »
launch autoscroll
font size
0
reset
how to read this tab
guitar tuner
edit
Autoscroll
slow
fast
+/-
esc
set tempo
stop
Capo 2nd fret

Tuning: E B D F# B E

[Intro + Verse]
E-----0--------0--------0---0--0--0------------------------------------|
B-----0--------0--------0---3--3--0------------------------------------|
F#----0--------0--------3---3--3—-3p0----------------------------------|
D-----2/4/2-------------0---0--0--0------------------------------------|
B-----0-----------------0---0--0--0------------------------------------|
E-----------------0h2h3-3---3--3--3------------------------------------|

[Chorus] (strum)
E-------0------0------0------------------------------------------------|
B-------0------0------0------------------------------------------------|
F#------0------0------0------------------------------------------------|
D-------0------0------0------------------------------------------------|
B-------7------5------3------------------------------------------------|
E-------7------5------3------------------------------------------------|

[Bridge]
E----------0-------------0-0------------------------0------------------|
B----------0---/3-2-0----0-0-------/5—3/2p0---------0------------------|
F#---------0----------3--3-3-----------------0------3------------------|
D----------0-------------0-0------------------------0h2h4--------------|
B----------0-------------0-0------------------------0------------------|
E------------------------5-5------------------------3------------------|


[Intro] (acoustic)


[Verse 1]

I've been up for days
Trying to find a way
To write this confession down

Seems every line I write's a mess
At least this I'll admit
For what I've done I am not proud

But there's no need to pretend
No need for innocence
I've got to be honest now


[Chorus]

My verdict has come in
It says, I'm guilty for my sins... this time
I thought I could escape, but then
I finally felt the weight... of my crimes

It's passion, it's not love
Infatuation never ends
Up right

At least I won't be alone tonight


[Bridge]

'Cause I don't want to be alone tonight


Intro (Acoustic)


[Verse 2]

The prosecution rests
With convincing evidence
But it seems I've been deceived

So now I stand alone
And wait for the first stone
To be cast upon... me


[Chorus]

My verdict has come in
It says, I'm guilty for my sins... this time
I thought I could escape, but then
I finally felt the weight... of my crimes

It's passion, it's not love
Infatuation never ends
Up right

At least I won't be alone tonight

Do do do do do do do do do do do do...

At least I won't be alone tonight
'Cause I don't want to be alone tonight



************************************

| p  Pull-off
| /  Slide up
| h  Hammer-on

************************************

            
            
Suggest correction
Creating personal tab
Creating personal tab
You can edit any tab online and save it as your Personal.

You can edit, replace or remove any tab part or add personal notes – all changes will be seen only by you.

Personal tabs can be accessed anytime from any device, even offline.
Learn more »
comments
print report bad tab
2 comments total.
0 reply
vitinhuohyeah 103 Mar 01, 2015 10:58 AM

that's it!
you could have tabbed the whole bridge, but its pretty simple to find out the rest of the notes just by listening the song.
excellent job figuring out the tuning though, 5 stars :)

0 reply
InNet 10 Mar 30, 2016 08:38 PM

That's great stuff! It's like a hybrid Open D/Open E tuning. He has such crazy tunings.

guest
Wanna post a correction for this tab? Suggest correction