Oops, an error
Loading. Please wait.

Harder Than Stone intro tab

version 1
version 1

Intro

Interactive

26,132 views 51 this week
2 commentsread comments
1 2 3 4 5
x 17
add to favorites
×
Save as Personal and add changes to this tab that will be seen only by you. Learn more ›
×
You can save this tab as Personal to edit and correct it or add notes. All changes will be seen only by you. Learn more »
launch autoscroll
font size
0
reset
how to read this tab
guitar tuner
edit
Autoscroll
slow
fast
+/-
esc
set tempo
stop
I slowed down the actual song to 20% speed for accuracy. if you really 
listen closely to the song you can hear all of the open notes I put in the tabs.
**CAPO 3rd FRET**


E |0h2--2p0------------------------------------------|
B |---0-----0h1------1h3p1p0---1p0-------------------|
G |------------0-------------0-----0--2------------0-|
D |0--------------0----------2--------0--------0h2---|
A |--------------------------------------------------|
E |--------------------------------------------------|

E |0h2---0h2s5---------------------------------------|
B |------------0h1---1h3s5---------3-----------------|
G |----0----------0-------------0--0---2-------------|
D |0-----------0--------------0--------0-------------|
A |--------------------------------------------------|
E |--------------------------------------------------|

            
            
Suggest correction
Creating personal tab
Creating personal tab
You can edit any tab online and save it as your Personal.

You can edit, replace or remove any tab part or add personal notes – all changes will be seen only by you.

Personal tabs can be accessed anytime from any device, even offline.
Learn more »
comments
print report bad tab
2 comments total.
+2 reply
MrJohnFisherman 36 Jun 11, 2013 10:47 PM

E |0h2--2p0--------------------------------------------|
B |---0-----0h1------1h3p1p0---1p0---------------------|
G |------------0-------------0-----0--2------------0---|
D |0--------------0----------2--------0--------0h2-----|
A |----------------------------------------------------|
E |----------------------------------------------------|

E |0h2---2h3s5-----------------------------------------|
B |------------0h1---1h3s5-----------3-----------------|
G |----0----------0----------------0-0---2-------------|
D |0-----------0-----------------0-------0-------------|
A |----------------------------------------------------|
E |----------------------------------------------------|

0 reply
eoneal81 10 Feb 19, 2014 06:49 PM

Nice work !

guest
You may want to rate the tab now too:
select rating
Wanna post a correction for this tab? Suggest correction