Oops, an error
Loading. Please wait.
We have an official Sleeping Sickness tab made by UG professional guitarists. Check out the tab »
×
49,651 views 9 this week
3 commentsread comments
1 2 3 4 5
1 last vote to show rating
add to favorites
×
Save as Personal and add changes to this tab that will be seen only by you. Learn more ›
×
You can save this tab as Personal to edit and correct it or add notes. All changes will be seen only by you. Learn more »
launch autoscroll
font size
0
reset
how to read this tab
guitar tuner
edit
Autoscroll
slow
fast
+/-
esc
set tempo
stop
Song: Sleeping Sickness [Old Version]
Artist: City and Colour
Tuning: Standard (EADGBe)
Capo: 2nd Fret

Legend:
. = Palm mute
[ ] = Harmonic


This is how to play the old version of Sleeping Sickness by City and Colour.



e|--0-2-0-2---0--0---0--0----|
B|--0-0-0-0---0--1---0--3----|
G|--0-0-0-0---0--0---0--0----|
D|--2-2-2-2---2--2---4--4----|x9
A|--2-2-2-2---3--3---5--5----|
E|------------3--3---5--5----|   

   
    . . . . .         . . . . .  
e|------------------------------------------------------------------|
B|------------------------------------------------------------------|
G|--------------0------------------0-----4--4/7--4--7--14-13-4------|
D|------------4---4--------------4---4---x--x/x--x--x---x--x-x------|x3
A|--0h2-0-2-0---------0h2-0-2-0----------2--2/5--2--5--12-11-2------|
E|------------------------------------------------------------------|
    . . . . . 
e|------------------------------------------------------|
B|------------------------------------------------------|
G|--------------0----4--4--4--4--4--4--4--4-------------|
D|------------4---4--x--x--x--x--x--x--x--x-------------|
A|--0h2-0-2-0--------2--2--2--2--2--2--2--2-------------|
E|------------------------------------------------------|

e|--0-2-0-2---0--0---0--0----|
B|--0-0-0-0---0--1---0--3----|
G|--0-0-0-0---0--0---0--0----|
D|--2-2-2-2---2--2---4--4----|x9
A|--2-2-2-2---3--3---5--5----|
E|------------3--3---5--5----|

e|---------------------------------------------------------------3--------------|
B|---------------------------------------------------------------0-------[7]----|
G|--------0----[7]---------------0-----[7]-------------------0---0-------[7]----|
D|--0h2---2-------[7]----0h2---2----------[7]--------------2-----2--------------|x2
A|-----------------------------------------------------2/3-------3-----2--------|
E|-------------------------------------------------------------------3----------|

End On
e|----2~----|
B|----0~----|
G|----0~----|
D|----2~----|
A|----2~----|
E|----------|

            
            
Suggest correction
Creating personal tab
Creating personal tab
You can edit any tab online and save it as your Personal.

You can edit, replace or remove any tab part or add personal notes – all changes will be seen only by you.

Personal tabs can be accessed anytime from any device, even offline.
Learn more »
Give kudos to tab author, rate the tab!
1 2 3 4 5
comments
print report bad tab
3 comments total.
0 reply
Carl6661 2,151 Jan 22, 2009 07:24 AM

thankyou SO much!

0 reply
thuno 10 Jan 22, 2009 10:07 AM

do you have a youtube link or something to this version? can't seem to find an "old version" anywhere on my PC

0 reply
omertoscar 606 Apr 06, 2009 09:43 AM

thuno:
you can find it as "The sleeping sickness"
the name of the new more folk version is just "Sleeping sickness"
i think it is in the death of me EP

guest
You may want to rate the tab now too:
select rating
Wanna post a correction for this tab? Suggest correction