Oops, an error
Loading. Please wait.

Sorrowing Man chords

version 2
version 2

Whole song

1,050 views 6 this week
no commentswrite comment
1 2 3 4 5
1 last vote to show rating
add to favorites
×
Save as Personal and add changes to this tab that will be seen only by you. Learn more ›
×
You can save this tab as Personal to edit and correct it or add notes. All changes will be seen only by you. Learn more »
launch autoscroll
font size
0
reset
transpose
0
reset
simplify chords
display chords
guitar tuner
edit
Autoscroll
slow
fast
+/-
esc
set tempo
stop
Author
Difficulty
Strumming
There is no strumming pattern for this song yet. and get +5 IQ
Sorrowing Man
By: City and Colour
Tabbed by: Ryan Clavir
Email: ryanclavir@gmail.com
Not sure if D12 is an accurate label for the chord as I could not 
identify the chord name (Dadd2add4/A?) but this is how Dallas Green plays it exactly.

Standard Tuning
   Em   D12   G   Asus  C
e|--0----0----0----0----0-------------------------------------------------|
B|--0----3----0----0----1-------------------------------------------------|
G|--0----0----0----2----0-------------------------------------------------|
D|--2----4----0----2----2-------------------------------------------------|
A|--2----5----2----0----3-------------------------------------------------|
E|--0----5----3----0----0-------------------------------------------------|

Em
  Sorrowing man
D12                     
  Look how warn you've become
Em                                D12
  You once were lord of the barren sea
Em
  There's blood on our hands
D12
  In this perfect madness
Em                           D12
  We're living on borrowed time


On the first three chord changes (generally)
E |-----0---------------------------------------0---------------------------|
B |-----0---------------------------------------3---------------------------|
G |-----0---------------------------------------0---------------------------|
D |-----2—0h2p0---------------------------------4---------------------------|
A |-----2------------0--------------------------5/7-------------------------|
E|------0---------------3-----------------------5---------------------------|

Chorus:

Em  G  D12     Asus      C
Oh how you have lost your way,
Em  G  D12     Asus      C
Oh how you have lost your way


The variation on the C chord on the studio track is just a pull off on the 1st fret,
acoustically, Dallas Green tends to pull off on the A string as well.

 

Verse 2:

Em
  There's no sympathy
D12
  cause we don't know the cure
EM
  Cause what you've got
                 D12
   it runs too pure
Em
   But you've lived and breathed
D12
   More than any man I know
Em
   But you're not done
                   D12
Oh at least I hope


Chorus:

Em  G  D12     Asus      C
Oh how you have lost your way,
Em  G  D12     Asus      C
Oh how you have lost your way
Em      G    D12    Asus     C
In this life we have made together
Em  G  D12     Asus      C
Oh how you have lost your way,
Em  G  D12     Asus      C
Oh how you have lost your way
Em  G  D12     Asus      C
Oh how you have lost your way,


The outro is just the verse riff repeated, Enjoy.

            
            
Suggest correction
Creating personal tab
Creating personal tab
You can edit any tab online and save it as your Personal.

You can edit, replace or remove any tab part or add personal notes – all changes will be seen only by you.

Personal tabs can be accessed anytime from any device, even offline.
Learn more »
Give kudos to tab author, rate the tab!
1 2 3 4 5
comments
print report bad tab
guest
You may want to rate the tab now too:
select rating
Wanna post a correction for this tab? Suggest correction