Oops, an error
Loading. Please wait.
We have Chord Pro version of The Girl.
It's the closest thing you can get to the original song and it has interactive parts. Check out the tab »
×
19,793 views 6 this week
no commentswrite comment
1 2 3 4 5
x 6
add to favorites
×
Save as Personal and add changes to this tab that will be seen only by you. Learn more ›
×
You can save this tab as Personal to edit and correct it or add notes. All changes will be seen only by you. Learn more »
launch autoscroll
font size
0
reset
how to read this tab
guitar tuner
edit
Autoscroll
slow
fast
+/-
esc
set tempo
stop
Just what I interpreted when I heard the song.  As other people have mentioned, 
Dallas Green changes things up pretty often from performance to performance.  
Would appreciate it if anyone could provide tab for the last part of the 
fingerpicking section of the song.  Any suggested changes to the intro below are welcome.  

Capo 3 

INTRO

    G                               Em
e|-------------------------------------------------------------------|
B|----0---3-------3---------------------0-----------------0----------|
G|------------0-------0---0---0---0---------0---0---0---------0---0--|
D|----------------------------------0h2-------2-------0h2------------|
A|--------------------------------------------------------------2----|
E|--3---3---3---3---3---3---2---0---------0-------0---------0--------|

    C               D               G      
e|-----------------------------------------------------------------------|
B|--------0---------------0-----------------0-----------0----------------|
G|----0-------0---0---0-------0---0---0---------0---0-------0---0--------|
D|------2-------2-------4-------4----------------------------------------|
A|--3-------3-------5-------5-----------0h2------------------------------|
E|----------------------------------3---------3---3---3---3---3----------|

            
            
Suggest correction
Creating personal tab
Creating personal tab
You can edit any tab online and save it as your Personal.

You can edit, replace or remove any tab part or add personal notes – all changes will be seen only by you.

Personal tabs can be accessed anytime from any device, even offline.
Learn more »
comments
print report bad tab
guest
You may want to rate the tab now too:
select rating
Wanna post a correction for this tab? Suggest correction