Oops, an error
Loading. Please wait.

Waiting tab

version 1
version 1

Whole song

47,092 views 9 this week
1 commentread comment
1 2 3 4 5
x 5
add to favorites
×
Save as Personal and add changes to this tab that will be seen only by you. Learn more ›
×
You can save this tab as Personal to edit and correct it or add notes. All changes will be seen only by you. Learn more »
launch autoscroll
font size
0
reset
how to read this tab
guitar tuner
edit
Autoscroll
slow
fast
+/-
esc
set tempo
stop
hey, I just worked out something for this song by ear, so it might not be perfect. but 
chords seem to fit. Any questions email me at lewgoswell@hotmail.com Thanks.


CAPO ON 2ND FRET

INTRO/VERSE CHORDS (i might feel better, than this..)

E|-0-0-0-0-0-0-0------0-0-0-0-----|
B|-0-0-0-0-0-0-0------3-3-3-3-----|
G|-0-0-0-0-0-2-0--X2--0-0-0-0-----|X2
D|-0-0h2-2-2-0-0------0-0-0-0-----|
A|-3-3-3-3-3-3-3------2-2-2-2-----|
E|-3-3-3-3-3-3-3------3-3-3-3-----|

INTRO/VERSE LEAD PART

E|---------------------------------|
B|---------------------------------|
G|-----------0h2----X4---2--2h4--0-|
D|-------0h2-----------------------|
A|---------------------------------|
E|---------------------------------|


CHORUS CHORDS (so say goodbye to love..)

   EM      G

E|-0-0-----0-----0-0---0--|
B|-0-0----(3)----0-0---0--|
G|-0-0-----0-----0-0---0--|
D|-2-2-----0-----4-4---2--|
A|-2-2-----2-----5-5---3--|
E|-0-0-----3-----5-5---3--|


CHORUS LEAD PART

E|--------------------|
B|--------------------|
G|------0h2--2/4------|
D|--0h2---------------|
A|--------------------|
E|--------------------|

            
            
Suggest correction
Creating personal tab
Creating personal tab
You can edit any tab online and save it as your Personal.

You can edit, replace or remove any tab part or add personal notes – all changes will be seen only by you.

Personal tabs can be accessed anytime from any device, even offline.
Learn more »
comments
print report bad tab
1 comment total.
+1 reply
redoriole08 131 Sep 06, 2008 09:13 PM

I'm not entirely sure why your tab is'nt a 5* because o think its better than the one that is

guest
Wanna post a correction for this tab? Suggest correction