Oops, an error
Loading. Please wait.

Waiting tab

version 2
version 2

Whole song

30,757 views 1 this week
1 commentread comment
1 2 3 4 5
1 last vote to show rating
add to favorites
×
Save as Personal and add changes to this tab that will be seen only by you. Learn more ›
×
You can save this tab as Personal to edit and correct it or add notes. All changes will be seen only by you. Learn more »
launch autoscroll
font size
0
reset
how to read this tab
guitar tuner
edit
Autoscroll
slow
fast
+/-
esc
set tempo
stop
Song: Waiting...
Artist: City and Colour
Tuning: Standard (EADGBe)
Capo: 2nd Fret


None of the tabs I found were right so I watched a video of Dallas playing it and
I'm pretty damn sure that this is the way that he plays it.

Also, you're going to have to figure the strumming out yourself because it's Dallas Green
and pretty much impossible to tab the strumming, lol.


   Intro/Verse

 E----------------------------------------------------------------|
 B----------------------------------------------------------------|
 G--2-2-2--2-2--2-2---2-2-2--2-2-2--------------------------------|
 D--2-0h2--0h2--0h2---0-4-0--0-4-0--------------------------------|
 A--3-3-3--3-3--3-3---2-2-2--2-2-2--------------------------------|
 E--3-3-3--3-3--3-3---3-3-3--3-3-3--------------------------------|


   Chorus Part 1

 E--0---3-3-------------------------------------------------------|
 B--0---0-0-------------------------------------------------------|
 G--0---0-2---4--2------------------------------------------------|
 D--2---0-0---4--2/4----------------------------------------------|
 A--2---2-2---5--3/5----------------------------------------------|
 E--0---3-3---5--3/5----------------------------------------------|

  Chorus Part 2

 E-0---3-3--------------------------------------------------------|
 B-0---0-0--------------------------------------------------------|
 G-0---0-2---4--2-------------------------------------------------|
 D-2---0-0---4--2--4/2~----4/2~-----------------------------------|
 A-2---2-2---5--3--5/3~----5/3~-----------------------------------|
 E-0---3-3---5--3--5/3~----5/3~-----------------------------------|


   Bridge

 E----------------------------------------------------------------|
 B----------------------------------------------------------------|
 G----------------------------------------------------------------|
 D--4--2--2--2--4--2--2--2--4~------------------------------------|
 A--5--3--2--3--5--3--2--3--5~------------------------------------|
 E--5--3--0--3--5--3--0--3--5~------------------------------------|

   Order

Intro/Verse x5
Chorus Part 1 x1
Chorus Part 2 x1
Intro/Verse x4
Chorus Part 1 x1
Chorus Part 2 x1
Bridge x1
Chorus Part 1 x3


 End with

 e--------------|
 B--------------|
 G--------------|
 D----4/2~------|
 A----5/3~------|
 E----5/3~------|

            
            
Suggest correction
Creating personal tab
Creating personal tab
You can edit any tab online and save it as your Personal.

You can edit, replace or remove any tab part or add personal notes – all changes will be seen only by you.

Personal tabs can be accessed anytime from any device, even offline.
Learn more »
Give kudos to tab author, rate the tab!
1 2 3 4 5
comments
print report bad tab
1 comment total.
0 reply
SweetLeaf420 52 Apr 25, 2008 11:56 PM

Noticed I missed something in the chorus... this is how it goes.

Chorus Part 1

E--0---3-3-3-------------------------------------------------------|
B--0---0-0-0-------------------------------------------------------|
G--0---0-0-2---4--2------------------------------------------------|
D--2---0-4-0---4--2/4----------------------------------------------|
A--2---2-2-2---5--3/5----------------------------------------------|
E--0---3-3-3---5--3/5----------------------------------------------|

Chorus Part 2

E-0---3-3-3-------------------------------------------------------|
B-0---0-0-0-------------------------------------------------------|
G-0---0-0-2--4--2-------------------------------------------------|
D-2---0-4-0--4--2--4/2~----4/2~-----------------------------------|
A-2---2-2-2--5--3--5/3~----5/3~-----------------------------------|
E-0---3-3-3--5--3--5/3~----5/3~-----------------------------------|

guest
You may want to rate the tab now too:
select rating
Wanna post a correction for this tab? Suggest correction