Oops, an error
Loading. Please wait.

See You At The Top bass

115 views 3 this week
no commentswrite comment
1 2 3 4 5
2 more votes to show rating
add to favorites
×
Save as Personal and add changes to this tab that will be seen only by you. Learn more ›
×
You can save this tab as Personal to edit and correct it or add notes. All changes will be seen only by you. Learn more »
launch autoscroll
font size
0
reset
guitar tuner
edit
Autoscroll
slow
fast
+/-
esc
set tempo
stop
[Intro]

Two guitars begin, then when vocalist says "this" is played (0h2) and when he says "one" is touched (2) "
ahi esta al  (Drop C#)  C# G# C# F#

F#|--------|-----------------------------|-----------------------------------------|
C#|--------|-----------------------------|-----------------------------------------|
G#|-0h2----|----------2-2-----0000---4-2-|----------22---0000--4-2-----------------|
C#|-----2--|--2222-----------------------|--2222-------------------2--22222222222--|


[Verse]

F#|-------------------------------------------------------------------|
C#|-------------------------------------------------------------------|
G#|-----------------0-000000000---------------------------------------|  X2 
C#|2-2222222222222-------------2-222222222--------4p2h4---6--77-9999--|


[Pre chorus] 

(jeremy part singing in rhythmic guitar)

F#|-----------------------------------------------------------------------------------|
C#|-----------------------------------------------------------------------------------|
G#|-0000000000000000-----------------------0000000000000000--22222222-----------------|
C#|-------------------2222222-44444444------------------------------------------------|


[Chorus]

i'll see you at the top
F#|----------------------------------------------------------------|
C#|----------------------------------------------------------------|
G#|-------0-0--2222----4---2--2---------------0-0----2222--4--2-2--| x2
C#|-2222--------------------------------2222-----------------------|


[Verse]

F#|-------------------------------------------------------------------|
C#|-------------------------------------------------------------------|
G#|-----------------0-0000000000--------------------------------------| X2 todo esto
C#|2-2222222222222-------------2-222222222--------4p2h4---6--77-9999--|


[Pre-Chorus]

(jeremy part singing in rhythmic guitar, this time double)

F#|-----------------------------------------------------------------------------------|
C#|-----------------------------------------------------------------------------------|
G#|-000000000000-----------------------0-0000000--22222---444444----------------------|
C#|-------------------2222222-44444444------------------------------------------------|

F#|---------------------------------------------------------------|
C#|---------------------------------------------------------------|
G#|---000000000000-----------------------------000000 2222222222--|
C#|-------------------2222222-444444------------------------------|


[Chorus]

i'll see you at the top
F#|----------------------------------------------------------------|
C#|----------------------------------------------------------------|
G#|-------0-0--2222----4---2--2---------------0-0----2222--4--2-2--|
C#|-2222--------------------------------2222-----------------------|


[BREAKDOWN]

F#|---------------------------------------------------------------------|
C#|---------------1h2p1--------------------2----------------------------|  x2
G#|---------------------2---4-44---4-----0------------------------------|
C#|-2-22--2-222---------------------777---------------------------------|

last time
F#|--------------------------------------------------------------------------|
C#|--------------------------------------------------------------------------|
G#|---------------------------------------------------------222222222222222--|
C#|-2-22-2-222--2-22--2-222-222---x2----y en la ultima-----------------------|

in this part it is only the "I'll see you at the top", played by the rhythm guitar and
They sing all

"you can quote me on this one, 1 2 3 4!!!!!!!!!!!!"


[Chorus]

i'll see you at the top
F#|----------------------------------------------------------------|
C#|----------------------------------------------------------------|
G#|-------0-0--2222----4---2--2---------------0-0----2222--4--2-2--| x2
C#|-2222--------------------------------2222-----------------------|



************************************

| x  Dead note
| h  Hammer-on
| p  Pull-off
   
************************************

            
            
Suggest correction
Creating personal tab
Creating personal tab
You can edit any tab online and save it as your Personal.

You can edit, replace or remove any tab part or add personal notes – all changes will be seen only by you.

Personal tabs can be accessed anytime from any device, even offline.
Learn more »
Give kudos to tab author, rate the tab!
1 2 3 4 5
comments
print report bad tab
guest
You may want to rate the tab now too:
select rating
Wanna post a correction for this tab? Suggest correction