Oops, an error
Loading. Please wait.

Where Youve Been tab

2,934 views 1 this week
no commentswrite comment
1 2 3 4 5
1 last vote to show rating
add to favorites
×
Save as Personal and add changes to this tab that will be seen only by you. Learn more ›
×
You can save this tab as Personal to edit and correct it or add notes. All changes will be seen only by you. Learn more »
launch autoscroll
font size
0
reset
how to read this tab
guitar tuner
edit
Autoscroll
slow
fast
+/-
esc
set tempo
stop
-------------------------------------------------------------------------------
                             Where You've Been - City Lights
-------------------------------------------------------------------------------
Tabbed by: somedayishere


Tuning: Drop C# (low to high) C# G# C# F# A# D#

Guitar 1: Lead
Guitar 2: Rhythm
Guitar 3: Piano arr. for guitar

Intro A

Guitar 3
|-17-----15-----15----14-------------------|
|-----15-----15----15-----15-17--15-17-15--|
|-----------------------------------------.|
|-----------------------------------------.|
|------------------------------------------|
|------------------------------------------|

Intro B

 Guitar 1
|------------------------------------------------------------|
|-----------------------------------------------------------.|
|-14--14--12-----12--12--12-12-11--11--9------9---9---9--9--.|
|-x---x---x------x---x---x--x--x---x---x------x---x---x--x---|
|-12--12--10-----10--10--10-10-9---9---7------7---7---7--7---|
|------------------------------------------------------------|
|
|Guitar 2
|------------------------------------------------------------|
|------------------------------------------------------------|
|-----------------------------------------------------------.|
|-9---4---5------5---5---5--5--9---5---7------7---7---7--7--.|
|-9---4---5------5---5---5--5--9---5---7------7---7---7--7---|
|-9---4---5------5---5---5--5--9---5---7------7---7---7--7---|

Guitar 1
|------------------------------|
|------------------------------|
|------------------------------|
|-11-----9------7--------------|
|-x------x------x--------------|
|-9------7------5--------------|
|
|Guitar 2
|------------------------------|
|------------------------------|
|------------------------------|
|-9------7------5--------------|
|-9------7------5--------------|
|-9------7------5-------12\\---|

Lead-in to verse

 Guitar 1
|--------------------------------------|
|--------------------------------------|
|--------------------------------------|
|--------------------------------------|
|-----------------------------5---4h5--|
|-0-0000-0-00-0-00-0-0-00-0-0---0------|
    ****   **   **     **   *   *

Verse 1

 Guitar 1
|--------------------------------------------------------------------------|
|--------------------------------------------------------------------------|
|.-------------------------------------------------------------------------|
|.-------------------------------------------------------------------------|
|-----------------------------5---4h5-----------------------------9---5\3--|
|-0-0000-0-00-0-00-0-0-00-0-0---0-----0-0000-0-00-0-00-0-0-00-0-0---0------|
|   ****   **   **     **   *   *       ****   **   **     **   *   *
|Guitar 2
|--------------------------------------------------------------------------|
|--------------------------------------------------------------------------|
|.-------------------------------------------------------------------------|
|.----------------------------4---2h4-----------------------------7---5\4--|
|--------------------------------------------------------------------------|
|-0-0000-0-00-0-00-0-0-00-0-0---0-----0-0000-0-00-0-00-0-0-00-0-0---0------|
    ****   **   **     **   *   *       ****   **   **     **   *   *
 Guitar 1
|--------------------------------------------------------------------------|
|--------------------------------------------------------------------------|
|-------------------------------------------------------------------------.|
|-------------------------------------------------------------------------.|
|-----------------------------5---4h5----------------------------5h7p5h7/9-|
|-0-0000-0-00-0-00-0-0-00-0-0---0-----5-5555-5-55-5-55-7-77-7-77-----------|
|   ****   **   **     **   *   *       ****   **   **   **   **
|Guitar 2
|--------------------------------------------------------------------------|
|--------------------------------------------------------------------------|
|-------------------------------------------------------------------------.|
|-------------------------------------------------------------------------.|
|-----------------------------4---2h4----------------------------4h5p4h5/7-|
|-0-0000-0-00-0-00-0-0-00-0-0---0-----5-5555-5-55-5-55-7-77-7-77-----------|
    ****   **   **     **   *   *       ****   **   **   **   **

Pre-chorus

 Guitar 1
|--------------------------------------------------|
|--------------------------------------------------|
|.-7--7--7--7--7--7--7--7--7--7--7--7--9--9--9--9--|
|.-x--x--x--x--x--x--x--x--x--x--x--x--x--x--x--x--|
|--5--5--5--5--5--5--5--5--5--5--5--5--7--7--7--7--|
|--------------------------------------------------|
|
|Guitar 2
|--------------------------------------------------|
|--------------------------------------------------|
|.-------------------------------------------------|
|.-5-----5-----5-----5-----5-----5-----7-----7-----|
|--5-----5-----5-----5-----5-----5-----7-----7-----|
|--5-----5-----5-----5-----5-----5-----7-----7-----|

 Guitar 1
|--------------------------------------------------|
|--------------------------------------------------|
|--11-11-11-11-11-11-11-11-12-12-12-12-9--9--9--9-.|
|--x--x--x--x--x--x--x--x--x--x--x--x--x--x--x--x-.|
|--9--9--9--9--9--9--9--9--10-10-10-10-7--7--7--7--|
|--------------------------------------------------|
|
|Guitar 2
|--------------------------------------------------|
|--------------------------------------------------|
|-------------------------------------------------.|
|--9-----9-----9-----9-----0-----0-----7-----7----.|
|--9-----9-----9-----9-----0-----0-----7-----7-----|
|--9-----9-----9-----9-----0-----0-----7-----7-----|

 Guitar 1
|--------------------------------|
|--------------------------------|
|--7--7--7--7--7--7--7--7--9-----|
|--x--x--x--x--x--x--x--x--x-----|
|--5--5--5--5--5--5--5--5--7-----|
|--------------------------------|
|
|Guitar 2
|--------------------------------|
|--------------------------------|
|--------------------------------|
|--5-----5-----5-----5-----7-----|
|--5-----5-----5-----5-----7-----|
|--5-----5-----5-----5-----7-----|

Chorus

 Guitar 1
|--------------------------------------------------|
|--------------------------------------------------|
|--7--7--7--7--7--7--7--7--7--7--7//9--7//9--9\\7--|
|--x--x--x--x--x--x--x--x--x--x--x--x--x--x--x--x--|
|--5--5--5--5--5--5--5--5--5--5--5//7--5//7--7\\5--|
|--------------------------------------------------|
|
|Guitar 2
|--------------------------------------------------|
|--------------------------------------------------|
|--------------------------------------------------|
|--0--0--0--0--0--0--0--0--0--0--0--0--0--0--0--0--|
|--0--0--0--0--0--0--0--0--0--0--0--0--0--0--0--0--|
|--0--0--0--0--0--0--0--0--0--0--0--0--0--0--0--0--|

 Guitar 1
|--------------------------------------------------|
|--------------------------------------------------|
|--7--7--7--7--7--7--7--7--7--7--7//9--7//9--9//11-|
|--x--x--x--x--x--x--x--x--x--x--x--x--x--x--x--x--|
|--5--5--5--5--5--5--5--5--5--5--5//7--5//7--7//9--|
|--------------------------------------------------|
|
|Guitar 2
|--------------------------------------------------|
|--------------------------------------------------|
|--------------------------------------------------|
|--5--5--5--5--5--5--5--5--5--5--5--5--5--5--5--5--|
|--5--5--5--5--5--5--5--5--5--5--5--5--5--5--5--5--|
|--5--5--5--5--5--5--5--5--5--5--5--5--5--5--5--5--|

 Guitar 1
|--------------------------------------------------|
|--------------------------------------------------|
|--11-11-11-11-11-11-12----9--9--9--9--9--9--11----|
|--x--x--x--x--x--x--x-----x--x--x--x--x--x--x-----|
|--9--9--9--9--9--9--10----7--7--7--7--7--7--9-----|
|--------------------------------------------------|
|
|Guitar 2
|--------------------------------------------------|
|--------------------------------------------------|
|--------------------------------------------------|
|--9--9--9--9--9--9--9--9--7--7--7--7--7--9--9--9--|
|--9--9--9--9--9--9--9--9--7--7--7--7--7--9--9--9--|
|--9--9--9--9--9--9--9--9--7--7--7--7--7--9--9--9--|

 Guitar 1
|--------------------------------------------------|
|--------------------------------------------------|
|--7--7--7--7--9--9--9--9--11-11-11-11-12-12-12-12-|
|--x--x--x--x--x--x--x--x--x--x--x--x--x--x--x--x--|
|--5--5--5--5--7--7--7--7--9--9--9--9--10-10-10-10-|
|--------------------------------------------------|
|
|Guitar 2
|--------------------------------------------------|
|--------------------------------------------------|
|--------------------------------------------------|
|--5--5--5--5--5--5--5--5--7--7--7--7--x--x--x--x--|
|--5--5--5--5--5--5--5--5--7--7--7--7--x--x--x--x--|
|--5--5--5--5--5--5--5--5--7--7--7--7--x--x--x--x--|

Play Intro B

Verse 2

 Guitar 1
|---------------------------------------------------------------------|
|---------------------------------------------------------------------|
|.--------------------------------------------------------------------|
|.-0-----0---0---0-0---0-----------0-----0---0---0-0---0--------------|
|--0-0-0-0-0-0-0-0-0-0-0-0-5---4h5-0-0-0-0-0-0-0-0-0-0-0-0-9---7/5----|
|--0-0-0-0-0-0-0-0-0-0-0-0---0-----0-0-0-0-0-0-0-0-0-0-0-0---0--------|
|    * *   *   *     *   *   *       * *   *   *     *   *   *
|Guitar 2
|---------------------------------------------------------------------|
|---------------------------------------------------------------------|
|.--------------------------------------------------------------------|
|.-0-----0---0---0-0---0---4---2h4-0-----0---0---0-0---0---7---5/4----|
|--0-0-0-0-0-0-0-0-0-0-0-0---------0-0-0-0-0-0-0-0-0-0-0-0------------|
|--0-0-0-0-0-0-0-0-0-0-0-0---0-----0-0-0-0-0-0-0-0-0-0-0-0---0--------|
     * *   *   *     *   *   *       * *   *   *     *   *   *
 Guitar 1
|---------------------------------------------------------------------|
|---------------------------------------------------------------------|
|--------------------------------------------------------------------.|
|--0-----0---0---0-0---0-----------5-----5---5---7-7---7-------------.|
|--0-0-0-0-0-0-0-0-0-0-0-0-5---4h5-5-5-5-5-5-5-5-7-7-7-7-7-5h7p5h7/9--|
|--0-0-0-0-0-0-0-0-0-0-0-0---0-----5-5-5-5-5-5-5-7-7-7-7-7------------|
|    * *   *   *     *   *   *       * *   *   *     *   *
|Guitar 2
|---------------------------------------------------------------------|
|---------------------------------------------------------------------|
|--------------------------------------------------------------------.|
|--0-----0---0---0-0---0---2---2h4-5-----5---5---7-7---7---4h5p4h5/7-.|
|--0-0-0-0-0-0-0-0-0-0-0-0---------5-5-5-5-5-5-5-7-7-7-7-7------------|
|--0-0-0-0-0-0-0-0-0-0-0-0---0-----5-5-5-5-5-5-5-7-7-7-7-7------------|
     * *   *   *     *   *   *       * *   *   *     *   *

Pre-chorus

Chorus x2

Bridge

 Guitar 1
|--10---------10---------12---------12---------|
|-------10-10------10-10------10-10------10-10-|
|----------------------------------------------|
|----------------------------------------------|
|----------------------------------------------|
|----------------------------------------------|
|
|Guitar 2
|----------------------------------------------|
|----------------------------------------------|
|----------------------------------------------|
|--5----5--5--7----7--7--9----9--9--9----9--9--|
|--5----5--5--7----7--7--9----9--9--9----9--9--|
|--5----5--5--7----7--7--9----9--9--9----9--9--|

 Guitar 1
|--9----------9----------10--------------------|
|-------10-10------10-10------10-10------------|
|----------------------------------------------|
|----------------------------------------------|
|-----------------------------------0-0-000----|
|-----------------------------------0-0-000----|
|                                   * * ***
|Guitar 2
|----------------------------------------------|
|----------------------------------------------|
|----------------------------------------------|
|--5----5--5--7----7--7--9----9--9-------------|
|--5----5--5--7----7--7--9----9--9--0-0-000----|
|--5----5--5--7----7--7--9----9--9--0-0-000----|
                                    * * ***
 Guitar 1
|--10---------10---------12---------12---------|
|-------10-10------10-10------10-10------10-10-|
|----------------------------------------------|
|----------------------------------------------|
|----------------------------------------------|
|----------------------------------------------|
|
|Guitar 2
|----------------------------------------------|
|----------------------------------------------|
|----------------------------------------------|
|--5----5--5--7----7--7--9----9--9--9----9--9--|
|--5----5--5--7----7--7--9----9--9--9----9--9--|
|--5----5--5--7----7--7--9----9--9--9----9--9--|

 Guitar 1
|--9----------9----------10---------10---------|
|-------10-10------10-10------10-10------10-10-|
|----------------------------------------------|
|----------------------------------------------|
|----------------------------------------------|
|----------------------------------------------|
|
|Guitar 2
|----------------------------------------------|
|----------------------------------------------|
|----------------------------------------------|
|--5----5--5--5----5--5--5----7--7--7----7--7--|
|--5----5--5--5----5--5--5----7--7--7----7--7--|
|--5----5--5--5----5--5--5----7--7--7----7--7--|

 Guitar 1
|------------------------------------------------|
|------------------------------------------------|
|------------------------------------------------|
|------------------------------------------------|
|--0-0-0----0-0-0---0--0--0-0-0----0-0-0---0--0--|
|--0-0-0----0-0-0---0--0--0-0-0----0-0-0---0--0--|
|  * * *    * * *   *  *  * * *    * * *   *  *
|Guitar 2
|------------------------------------------------|
|------------------------------------------------|
|------------------------------------------------|
|--0---------------------------------------------|
|--0----------------------0-0-0----0-0-0---0--0--|
|--0----------------------0-0-0----0-0-0---0--0--|
                          * * *    * * *   *  *

Breakdown

- For this section, I have put a ^ over the tab where each down beat is to
  try to clarify how to play it. If it makes it more confusing, please 
  disregard them.

 Both Guitars
   ^     ^     ^     ^     ^     ^     ^     ^
|-----------------------------------------------------|
|-----------------------------------------------------|
|-----------------------------------------------------|
|-----------------------------------------------------|
|--0-0-0---00-00-----------00000---0-0-00----000-000--|
|--0-0-0---00-00-----------00000---0-0-00----000-000--|
   * * *   ** **           *****   * * **    *** ***
 Both Guitars
   ^     ^     ^     ^     ^     ^     ^     ^
|-----------------------------------------------------|
|-----------------------------------------------------|
|-----------------------------------------------------|
|-----------------------------------------------------|
|--0-0-0---00-00-----------00000---0-0-00-------------|
|--0-0-0---00-00-----------00000---0-0-00-------------|
   * * *   ** **           *****   * * **
 Both Guitars
   ^       ^       ^       ^       ^       ^       ^       ^
|---------------------------------------------------------------------|
|---------------------------------------------------------------------|
|--------------------------------------------------------------------.|
|--------------------------------------------------------------------.|
|--0000000------------0-0000----------0-0000-----------9-------7------|
|--0000000------------0-0000----------0-0000-------5-------7----------|
   *******            * ****          * ****
 Both Guitars
|--------|
|--------|
|--------|
|--0-----|
|--0-----|
|--0-----|

Chorus x2

Intro B

Both guitars end on
|-------|
|-------|
|-------|
|--0----|
|--0----|
|--0----|


I learned this by ear, but I am pretty confident that it is accurate. There
is a lead riff over the second half of the breakdown, but I left it out
because the breakdown is more fun to play and I think it sounds fine without
the lead riff.


************************************

| /   slide up
| \   slide down
| h   hammer-on
| p   pull-off
| ~   vibrato
| +   harmonic
| x   Mute note
| b   Bend
| pb  Pre-bend
| br  Bend release
| pbr Pre-bend release
| brb Bend release bend
| *   Palm mute

************************************

            
            
Suggest correction
Creating personal tab
Creating personal tab
You can edit any tab online and save it as your Personal.

You can edit, replace or remove any tab part or add personal notes – all changes will be seen only by you.

Personal tabs can be accessed anytime from any device, even offline.
Learn more »
Give kudos to tab author, rate the tab!
1 2 3 4 5
comments
print report bad tab
guest
You may want to rate the tab now too:
select rating
Wanna post a correction for this tab? Suggest correction