Oops, an error
Loading. Please wait.

96 Quite Bitter Beings tab

version 9
by CKY
2,758 views 1 this week
no commentswrite comment
1 2 3 4 5
x 3
add to favorites
×
Save as Personal and add changes to this tab that will be seen only by you. Learn more ›
×
You can save this tab as Personal to edit and correct it or add notes. All changes will be seen only by you. Learn more »
launch autoscroll
font size
0
reset
how to read this tab
guitar tuner
backing track
0:00
0:00
edit
Autoscroll
slow
fast
+/-
esc
set tempo
stop
Author
Band: Cky
Song: 96 Quite Bitter Beings
Album: Camp Kill Yourself vol. 1

Intro
Both Guitars
Heavy Distortion
D#---------------------------------------------------------------------------|
A#---------------------------------------------------------------------------|
F#------4--------------4-5-4-------------/7-5--4-2-0-4-0---------------------|
C#--2-5-----------2-5--------5-4-0---5-5-------------------------------------|
G#---------2-------------------------3---------------------------------------|
D#---------0-----------------------------------------------------------------|


Pre Verse/Verse
Both Guitars
Heavy Dist.
D#---------------------------------------------------------------------------|
A#---------------------------------------------------------------------------|
F#---------------6--6--6-----------------------------------------------------|
C#--2--2--2------6--6--6-----------------------------------------------------|
G#--2--2--2------4--4--4-----------------------------------------------------|
D#--0--0--0---0--0--0--0-----------------------------------------------------|

After 1st Verse
Both Guitars
Heavy Distortion
D#---------------------------------------------------------------------------|
A#---------------------------------------------------------------------------|
F#------4--------------4-5-4-------------/7-5--4-2-0-4-0---------------------|
C#--2-5-----------2-5--------5-4-0---5-5-------------------------------------|
G#---------2-------------------------3---------------------------------------|
D#---------0-----------------------------------------------------------------|


Verse 2
Both Guitars
Heavy Dist.
D#---------------------------------------------------------------------------|
A#---------------------------------------------------------------------------|
F#---------------6--6--6-----------------------------------------------------|
C#--2--2--2------6--6--6-----------------------------------------------------|
G#--2--2--2------4--4--4-----------------------------------------------------|
D#--0--0--0---0--0--0--0-----------------------------------------------------|


After 2nd Verse
Guitar 1
Heavy Dist.
D#---------------------------------------------------------------------------|
A#---------------------------------------------------------------------------|
F#--4-4-4-4-4-4-2-2-2-2-2-2--------------------------------------------------|
C#--x-x-x-x-x-x-x-x-x-x-x-x--------------------------------------------------|
G#--2-2-2-2-2-2-0-0-0-0-0-0--------------------------------------------------|
D#---------------------------------------------------------------------------|

Guitar 2
Heavy Dist.
D#---------------------------------------------------------------------------|
A#---------------------------------------------------------------------------|
F#--9-9-9-9-9-9-12-12-12-12-12-12--------------------------------------------|
C#--9-9-9-9-9-9-12-12-12-12-12-12--------------------------------------------|
G#--7-7-7-7-7-7-10-10-10-10-10-10--------------------------------------------|
D#---------------------------------------------------------------------------|


Bridge
Both Guitars
Heavy Dist.
D#---------------------------------------------------------------------------|
A#---------------------------------------------------------------------------|
F#--7--7--7------9-----------------------------------------------------------|
C#--7--7--7--5---9--2--2-----------------------------------------------------|
G#--5--5--5----5-7--2--2-----------------------------------------------------|
D#------------------0--0-----------------------------------------------------|


After Bridge
Guitar 1
Heavy Dist.
D#---------------------------------------------------------------------------|
A#---------------------------------------------------------------------------|
F#--4-4-4-4-4-4-2-2-2-2-2-2--------------------------------------------------|
C#--x-x-x-x-x-x-x-x-x-x-x-x--------------------------------------------------|
G#--2-2-2-2-2-2-0-0-0-0-0-0--------------------------------------------------|
D#---------------------------------------------------------------------------|

Guitar 2
Heavy Dist.
D#---------------------------------------------------------------------------|
A#---------------------------------------------------------------------------|
F#--9-9-9-9-9-9-12-12-12-12-12-12--------------------------------------------|
C#--9-9-9-9-9-9-12-12-12-12-12-12--------------------------------------------|
G#--7-7-7-7-7-7-10-10-10-10-10-10--------------------------------------------|
D#---------------------------------------------------------------------------|


Bridge
Both Guitars
Heavy Dist.
D#---------------------------------------------------------------------------|
A#---------------------------------------------------------------------------|
F#--7--7--7------9-----------------------------------------------------------|
C#--7--7--7--5---9--2--2-----------------------------------------------------|
G#--5--5--5----5-7--2--2-----------------------------------------------------|
D#------------------0--0-----------------------------------------------------|


Play Intro Until End
Both Guitars
Heavy Distortion
D#---------------------------------------------------------------------------|
A#---------------------------------------------------------------------------|
F#------4--------------4-5-4-------------/7-5--4-2-0-4-0---------------------|
C#--2-5-----------2-5--------5-4-0---5-5-------------------------------------|
G#---------2-------------------------3---------------------------------------|
D#---------0-----------------------------------------------------------------|


Any Q's AIM me at ZERObullshat @aol.com

            
            
Suggest correction
Creating personal tab
Creating personal tab
You can edit any tab online and save it as your Personal.

You can edit, replace or remove any tab part or add personal notes – all changes will be seen only by you.

Personal tabs can be accessed anytime from any device, even offline.
Learn more »
Give kudos to tab author, rate the tab!
1 2 3 4 5
comments
print report bad tab
guest
You may want to rate the tab now too:
select rating
Wanna post a correction for this tab? Suggest correction