Oops, an error
Loading. Please wait.

Close Yet Far chords

version 2
version 2

Whole song

Interactive

by CKY
4,752 views 21 this week
1 commentread comment
1 2 3 4 5
x 12
add to favorites
×
Save as Personal and add changes to this tab that will be seen only by you. Learn more ›
×
You can save this tab as Personal to edit and correct it or add notes. All changes will be seen only by you. Learn more »
launch autoscroll
font size
0
reset
transpose
0
reset
simplify chords
display chords
guitar tuner
edit
Autoscroll
slow
fast
+/-
esc
set tempo
stop
Strumming
There is no strumming pattern for this song yet. and get +5 IQ
Artist: cKy
Song: Close Yet Far
Album: Infiltrate. Destroy. Rebuild.
Tuning: Whole Step Down 


Main Riff That plays throughout song (except Interludes) (I have changed it to a more convenient way):
E|--------------------------------------------------------------|
B|--------------------------0--1--3--1----0---------------------|
G|-0-----------2-----------------------------2--0---------------|
D|----2-----2-----0-----0---------------------------------------|
A|-------2-----------0------------------------------------------|
E|-0-----------2------------3---------(3)-----------------------| 


Chords

     Em  Dsus2  G
E|----0----0----3----|
B|----0----3----0----|
G|----0----2----0----|
D|----2----0----0----|
A|----2----0----2----|
E|----0----2----3----|


Intro:
|Em-Dsus2-G|x4


Verse 1:
Em            Dsus2    G
Who said that I wasn't right?
Em             Dsus2           G
I've lived for years without a life
Em           Dsus2      G
Don't have a soul on my side
          Em                Dsus2            G
Still ridiculed despite how hard that I have tried


Verse 2:
Em            Dsus2      G
Don't take me under your wing
Em             Dsus2            G
I don't need a hand, don't need anything
Em         Dsus2         G
I've got a roof over my head
          Em        Dsus2         G        
As if I'd rather be alone with me instead


Alternative Chords for Chorus:
   Em*    Dsus2    G
E|-------------------|
B|-------------------|
G|--9------7---------|
D|--9------7------5--|
A|--7------5------5--|
E|----------------3--|


Chorus:
Em      Dsus2 G 
Close   yet   far
          Em               Dsus2             G
Drop me a line and tell me how the hell you are
                Em               Dsus2              G
And I'll tip my hat to those who can't believe it's me
         Em          Dsus2      G 
Though I never never never ever wanted this to be


Interlude:
  
E|--------------------------------------------------------------|
B|-0---------------/5-/5----------------------------------------|
G|----2--0------------------------------------------------------|
D|-----------5-4------------------------------------------------|
A|-2---------------/7-/7----------------------------------------|
E|--------------------------------------------------------------|

Or
   Em    D     Em*
E|-0-----5-----7---|
B|-0-----7-----8---|
G|-0-----7-----9---|
D|-2-----7-----9---|
A|-2-----5-----7---|
E|-0-----5-----7---|


Verse 3:

Em             Dsus2         G
I can hear the sounds of the city
Em          Dsus2       G
Sunrise and set are the same to me
  Em         Dsus2         G
A hesitating pulse is good company
       Em                Dsus2   G 
And my reflection offers no apology

    
Verse 4:

    Em            Dsus2    G
But Who said that I wasn't right?
Em             Dsus2           G
I've lived for years without a life
Em           Dsus2      G
Don't have a soul on my side
          Em                Dsus2            G
Still ridiculed despite how hard that I have tried


Chorus:

Em      Dsus2 G 
Close   yet   far
          Em               Dsus2             G
Drop me a line and tell me how the hell you are
                Em               Dsus2              G
And I'll tip my hat to those who can't believe it's me
         Em          Dsus2      G 
Though I never never never ever wanted this to be


Interlude:
  
E|--------------------------------------------------------------|
B|-0---------------/5-/5----------------------------------------|
G|----2--0------------------------------------------------------|
D|-----------5-4------------------------------------------------|
A|-2---------------/7-/7----------------------------------------|
E|--------------------------------------------------------------|x2

Or
   Em    D     Em*
E|-0-----5-----7---|
B|-0-----7-----8---|
G|-0-----7-----9---|
D|-2-----7-----9---|
A|-2-----5-----7---|
E|-0-----5-----7---|x2


Chorus:

Em      Dsus2 G 
Close   yet   far
          Em               Dsus2            G
Drop me a line and tell me how the hell you are
                  Em                  Dsus2        G      
And I'll think of days when there was something to believe
         Em          Dsus2      G 
Though I never never never ever wanted this to be




Outro

E|--------------------------------------------------------------|
B|--------------------------0--1--3--1----0---------------------|
G|-0-----------2-----------------------------2--0---------------|
D|----2-----2-----0-----0---------------------------------------|
A|-------2-----------0------------------------------------------|
E|-0-----------2------------3---------(3)-----------------------| x4


Then:
E|--------------------------------------------------------------|
B|-0---------------/5-/5----------------------------------------|
G|----2--0------------------------------------------------------|
D|-----------5-4------------------------------------------------|
A|-2---------------/7-/7----------------------------------------|
E|--------------------------------------------------------------|x3

Or
   Em    D     Em*
E|-0-----5-----7---|
B|-0-----7-----8---|
G|-0-----7-----9---|
D|-2-----7-----9---|
A|-2-----5-----7---|
E|-0-----5-----7---|x3

            
            
Suggest correction
Creating personal tab
Creating personal tab
You can edit any tab online and save it as your Personal.

You can edit, replace or remove any tab part or add personal notes – all changes will be seen only by you.

Personal tabs can be accessed anytime from any device, even offline.
Learn more »
comments
print report bad tab
1 comment total.
0 reply
The Fella 10 Mar 12, 2013 04:11 PM

Yeah pretty awesome good job man

guest
You may want to rate the tab now too:
select rating
Wanna post a correction for this tab? Suggest correction