Oops, an error
Loading. Please wait.

Close Yet Far ukulele

version 1
version 1

Whole song

Interactive

by CKY
138 views 1 this week
no commentswrite comment
1 2 3 4 5
2 more votes to show rating
add to favorites
×
Save as Personal and add changes to this tab that will be seen only by you. Learn more ›
×
You can save this tab as Personal to edit and correct it or add notes. All changes will be seen only by you. Learn more »
launch autoscroll
font size
0
reset
transpose
0
reset
simplify chords
display chords
guitar tuner
edit
Autoscroll
slow
fast
+/-
esc
set tempo
stop
Strumming
There is no strumming pattern for this song yet. and get +5 IQ
Artist: cKy
Song: Close Yet Far
Album: Infiltrate. Destroy. Rebuild.
Tuning: Whole Step Down 

Main Riff That plays throughout song (except Interludes:
E|--------------------------------------------------------------|
B|--------------------------------------------------------------|
G|-0-----------2------------------------------------------------|
D|----2-----2-----0-----0---9--10—10/12\10---9-----0------------|
A|-------2-----------0-------------------------10---------------|
E|-0-----------2------------------------------------------------| 


Chords

     Am  Gsus2  C
E|----0----0----3----|
B|----0----3----0----|
G|----0----2----0----|
D|----2----0----0----|
A|----2----0----2----|
E|----0----2----3----|


Intro:
|Am-Gsus2-C|x4


Verse 1:
Am            Gsus2    C
Who said that I wasn't right?
Am             Gsus2           C
I've lived for years without a life
Am           Gsus2      C
Don't have a soul on my side
          Am                Gsus2            C
Still ridiculed despite how hard that I have tried


Verse 2:
Am            Gsus2      C
Don't take me under your wing
Am             Gsus2            C
I don't need a hand, don't need anything
Am         Gsus2         C
I've got a roof over my head
          Am        Gsus2         C        
As if I'd rather be alone with me instead


Alternative Chords for Chorus:
   Am*    Gsus2    C
E|-------------------|
B|-------------------|
G|--9------7---------|
D|--9------7------5--|
A|--7------5------5--|
E|----------------3--|


Chorus:
Am      Gsus2 C 
Close   yet   far
          Am               Gsus2             C
Drop me a line and tell me how the hell you are
                Am               Gsus2              C
And I'll tip my hat to those who can't believe it's me
         Am          Gsus2      C 
Though I never never never ever wanted this to be


Interlude:
  
E|--------------------------------------------------------------|
B|-0---------------/5-/5----------------------------------------|
G|----2--0------------------------------------------------------|
D|-----------5-4------------------------------------------------|
A|-2---------------/7-/7----------------------------------------|
E|--------------------------------------------------------------|

Or
   Am    G     Am*
E|-0-----5-----7---|
B|-0-----7-----8---|
G|-0-----7-----9---|
D|-2-----7-----9---|
A|-2-----5-----7---|
E|-0-----5-----7---|


Verse 3:

Am             Gsus2         C
I can hear the sounds of the city
Am          Gsus2       C
Sunrise and set are the same to me
  Am         Gsus2         C
A hesitating pulse is good company
       Am                Gsus2   C 
And my reflection offers no apology

    
Verse 4:

    Am            Gsus2    C
But Who said that I wasn't right?
Am             Gsus2           C
I've lived for years without a life
Am           Gsus2      C
Don't have a soul on my side
          Am                Gsus2            C
Still ridiculed despite how hard that I have tried


Chorus:

Am      Gsus2 C 
Close   yet   far
          Am               Gsus2             C
Drop me a line and tell me how the hell you are
                Am               Gsus2              C
And I'll tip my hat to those who can't believe it's me
         Am          Gsus2      C 
Though I never never never ever wanted this to be


Interlude:
  
E|--------------------------------------------------------------|
B|-0---------------/5-/5----------------------------------------|
G|----2--0------------------------------------------------------|
D|-----------5-4------------------------------------------------|
A|-2---------------/7-/7----------------------------------------|
E|--------------------------------------------------------------|x2

Or
   Am    G     Am*
E|-0-----5-----7---|
B|-0-----7-----8---|
G|-0-----7-----9---|
D|-2-----7-----9---|
A|-2-----5-----7---|
E|-0-----5-----7---|x2


Chorus:

Am      Gsus2 C 
Close   yet   far
          Am               Gsus2            C
Drop me a line and tell me how the hell you are
                  Am                  Gsus2        C      
And I'll think of days when there was something to believe
         Am          Gsus2      C 
Though I never never never ever wanted this to be




Outro

|--------------------------------------------------------------|
|--------------------------------------------------------------|
|-0-----------2------------------------------------------------|
|----2-----2-----0-----0---9--10—10/12\10---9-----0------------|
|-------2-----------0-------------------------10---------------|
|-0-----------2------------------------------------------------| x4


Then:
E|--------------------------------------------------------------|
B|-0---------------/5-/5----------------------------------------|
G|----2--0------------------------------------------------------|
D|-----------5-4------------------------------------------------|
A|-2---------------/7-/7----------------------------------------|
E|--------------------------------------------------------------|x3

Or
   Am    G     Am*
E|-0-----5-----7---|
B|-0-----7-----8---|
G|-0-----7-----9---|
D|-2-----7-----9---|
A|-2-----5-----7---|
E|-0-----5-----7---|x3

            
            
Suggest correction
Creating personal tab
Creating personal tab
You can edit any tab online and save it as your Personal.

You can edit, replace or remove any tab part or add personal notes – all changes will be seen only by you.

Personal tabs can be accessed anytime from any device, even offline.
Learn more »
Give kudos to tab author, rate the tab!
1 2 3 4 5
comments
print report bad tab
guest
Wanna post a correction for this tab? Suggest correction