Oops, an error
Loading. Please wait.

Frenetic Amnesic tab

version 3
version 3

Whole song

Interactive

by CKY
196 views 1 this week
no commentswrite comment
1 2 3 4 5
2 more votes to show rating
add to favorites
×
Save as Personal and add changes to this tab that will be seen only by you. Learn more ›
×
You can save this tab as Personal to edit and correct it or add notes. All changes will be seen only by you. Learn more »
launch autoscroll
font size
0
reset
how to read this tab
guitar tuner
edit
Autoscroll
slow
fast
+/-
esc
set tempo
stop
This is for the Ålliance!

cKy [CAMP KILL yourseLF]
------------------------
FRENETIC AMNESIC (track №5 from the INFILTRATE•DESTROY•REBUILD)
Released by Island Records 24 september 2002
--------------------------------------------
Guitar, Bass, Vocal parts & co-production by Deron Miller
Lead guitar, Bass, Vocal parts & Production by Chad I Ginsburg
Drums part by Jess Margera
--------------------------
Guitar tab by Andrew A. Terexin (Russia/Moscow) [6.s8dashes@gmail.com]
Used: Epiphone Les Paul Studio with D'Addario 12-52 jazz steel strings,
Digitech RP-155, Line 6 Toneport GX Mk2, Guitar Rig 5 Player
------------------------------------------------------------
Tuning: D Standart (D G C F A D)

1) Intro/Chorus/Main riff
D|---------------------------------------|-------------------------------------------------------------------|
A|---------------------------------------|-------------------------------------------------------------------|
F|---------------------------------------|-------------------------------------------------------------------|
C|---------------------------------------|-------------------------------------------------------------------|
G|--0-0-0-0-7-0-0-0-0-7-0-0-7-5-3-3--x2--|----------5---------5-----5/7\5-3---------5---------5---------3-3--|
D|---------------------------------------|--3-3-3-3---3-3-3-3---3-3---------1-1-1-1---1-1-1-1---1-1-1/3------|

2)
D|---------------------|
A|---------------------|
F|----------------7-7--|
C|------5-5-----5------|
G|----3-----5/7--------|
D|--5------------------|

3)
D|-------------------------------------------------------|
A|-------------------------------------------------------|
F|-------------------------------------------------------|
C|-------------------------------------------------5-----|
G|-------------------------------------------------3--5--|
D|--5-5-5-5-5-5-5-5-5-5-5-5-5-5-3-1-1-1-1-1-1-1-1-----3--|
    . . . . . . . . . . . . . . . . . . . . . . .

4)
D|----------------------------------------------------------------|
A|----------------------------------------------------------------|
F|----------------------------------------------------------------|
C|----------------------------------------------------------------|
G|--5-5-5-5-5-5-5-5-5-5-5-5-3-3-5-5-7-7-7-7-7-7-7/8\7-5-5-3-3-3-3-|
D|----------------------------------------------------------------|

5) Bridge
D|-------------------------------------------------------------|
A|-------------------------------------------------------------|
F|-------------------------------------------------------------|
C|----------------7------5---------------------10------9\7\5~--|
G|---------7---------------5-----------10----------------------|
D|--5-5--5---5--5---5--5-----5--8-8--8----8--8----8--8---------|

Sequence
1)x5
2)x1
3)x2
4)x1
3)x1
1)x3
2)x1
3)x2
4)x1
3)x3
4)x1
3)x1
5)x6
2)x1
1)x3
2)x1

SYMBOLS
-------
/ - slide up
h - hammer-on
p - pull-off
. - palm muting

SOME NOTES
----------
Hey!
This is my 2nd tab of the incredible band cKy. At this time it's a tab of my favorite I•D•R song
- Frenetic Amnesic. This is a very unusual track with a interesting mix of guitar, deepy-bass
and offbeat drum parties.

This tab is 100% correct. I wrote it on the basis of Deron Miller - Instructional Tab Video DVD.

Thank you very much. Enjoy it! I hope this helps.

And necessarily check Deron's DVD!:
http://ckyrockandmetal.bigcartel.com/product/cky-deron-miller-instructional-dvd-for-guitar

            
            
Suggest correction
Creating personal tab
Creating personal tab
You can edit any tab online and save it as your Personal.

You can edit, replace or remove any tab part or add personal notes – all changes will be seen only by you.

Personal tabs can be accessed anytime from any device, even offline.
Learn more »
Give kudos to tab author, rate the tab!
1 2 3 4 5
comments
print report bad tab
guest
You may want to rate the tab now too:
select rating
Wanna post a correction for this tab? Suggest correction