Oops, an error
Loading. Please wait.

Promiscous Daughter bass

by CKY
352 views 1 this week
3 commentsread comments
1 2 3 4 5
3 more votes to show rating
add to favorites
×
Save as Personal and add changes to this tab that will be seen only by you. Learn more ›
×
You can save this tab as Personal to edit and correct it or add notes. All changes will be seen only by you. Learn more »
launch autoscroll
font size
0
reset
guitar tuner
edit
Autoscroll
slow
fast
+/-
esc
set tempo
stop
Author
Difficulty
VERSE   (00:01)
G|----------------------|
D|0000000000033333333333|
A|----------------------|x8
E|----------------------|

Bass solo  (00:51)this part is correct ive listenend to the song and he plays the 3rd fret on the E string
G|------------------------|
D|------------------------|
A|---77-55-3-5-3---5-3-5-3|x8
E|-5-------------3--------|

CHORUS   (01:23)
G|--7-4-2--------------7-4-2---------|
D|0--------0-3-55-0--0--------0-3-55-|
A|-----------------------------------|x5
E|-----------------------------------|

VERSE  (01:53)
G|----------------------|
D|0000000000033333333333|
A|----------------------|x6
E|----------------------|

BRIDGE   (02:25)
G|---------------|
D|0~---------3~--|
A|---------------|x4
E|---------------|

CHORUS   (2:40) AND REPEAT TILL THE END
G|--7-4-2--------------7-4-2---------|
D|0--------0-3-55-0--0--------0-3-55-|
A|-----------------------------------|
E|-----------------------------------|


            
            
Suggest correction
Creating personal tab
Creating personal tab
You can edit any tab online and save it as your Personal.

You can edit, replace or remove any tab part or add personal notes – all changes will be seen only by you.

Personal tabs can be accessed anytime from any device, even offline.
Learn more »
Give kudos to tab author, rate the tab!
1 2 3 4 5
comments
print report bad tab
3 comments total.
0 reply
_jeSuS_ 36 Jul 02, 2006 11:13 PM

the bass part is wrong so this is the right one
SORRY!!
G|-------------------------
D|----77-55-3-5-3---5-3-5-3
A|--5-------------3--------
E|-------------------------

0 reply
FleaRedHot 10 Aug 17, 2007 07:25 AM

good tab, but how in the bridge do you vibrato an open string?

0 reply
_jeSuS_ 36 Oct 25, 2007 05:57 AM

this tab was kinda rushed just do

A|--5~----

and forget about the open D

guest
You may want to rate the tab now too:
select rating
Wanna post a correction for this tab? Suggest correction