Oops, an error
Loading. Please wait.

Suddenly Tragic tab

version 3
version 3

Whole song

Interactive

by CKY
728 views 1 this week
no commentswrite comment
1 2 3 4 5
3 more votes to show rating
add to favorites
×
Save as Personal and add changes to this tab that will be seen only by you. Learn more ›
×
You can save this tab as Personal to edit and correct it or add notes. All changes will be seen only by you. Learn more »
launch autoscroll
font size
0
reset
how to read this tab
guitar tuner
edit
Autoscroll
slow
fast
+/-
esc
set tempo
stop
Author
Difficulty
Cky

Suddenly Tragic
An Answer Can Be Found

DGCFAD

Key:

L-legato slide
h-hammer on
b-bend
/-slide
~-vibrato
PM-palm mute


Intro-1/ 0:04-0:05

d|-------|
a|-------|
f|-------|
c|-------|
g|-2/9---|
D|-2/9---| x1


Intro-2/  0:05-0:36

d|-----------------------------------------------------------------------|
a|-----------------------------------------------------------------------|
f|-----------1------------------------------------1----------------------|
c|-2-----------2-4-2-----2-------1----4-2-----------2-4-2----2-4/6-6-6---|
g|---4-2-4-4-----------0---0---2---2------4-2-4-4----------0-------------|
D|-----------------------------------------------------------------------|


d|-----------------------------------------------------------------------|
a|-----------------------------------------------------------------------|
f|-----------1------------------------------------1----------------------|
c|-2-----------2-4-2-----2-------1----4-2-----------2-4-2----2-4/6-6-4---|
g|---4-2-4-4-----------0---0---2---2------4-2-4-4----------0-------------|
D|-----------------------------------------------------------------------| x2


Verse-1/ 0:36-0:51                        

d|--------------------------------------------------------------------|
a|--------------------------------------------------------------------|
d|--------------------------------------------------------------------|
c|--------------------------------------------------------------------|
g|-6---4-----4---6---4----------4-6---7-----------9-7-----------------|
D|---7---7-7---7---7---7-4----7---------9-7-9-9-9-----9-7-9-9-9-9-7---|


d|----------------------------------------------------------------------|
a|----------------------------------------------------------------------|
d|----------------------------------------------------------------------|
c|----------------------------------------------------------------------|
g|-6---4-----4---6---4----------4-6---7-----------9-7-------------/12---|
D|---7---7-7---7---7---7-4----7---------9-7-9-9-9-----9-7-9-9-9-9-/12---| x1


Intro-2/ 0:51-1:06

d|-----------------------------------------------------------------------|
a|-----------------------------------------------------------------------|
f|-----------1------------------------------------1----------------------|
c|-2-----------2-4-2-----2-------1----4-2-----------2-4-2----2-4/6-6-6---|
g|---4-2-4-4-----------0---0---2---2------4-2-4-4----------0-------------|
D|-----------------------------------------------------------------------|


d|-----------------------------------------------------------------------|
a|-----------------------------------------------------------------------|
f|-----------1------------------------------------1----------------------|
c|-2-----------2-4-2-----2-------1----4-2-----------2-4-2----2-4/6-6-4---|
g|---4-2-4-4-----------0---0---2---2------4-2-4-4----------0-------------|
D|-----------------------------------------------------------------------| x1  


Verse-2/ 1:06-1:20

d|--------------------------------------------------------------------|
a|--------------------------------------------------------------------|
d|--------------------------------------------------------------------|
c|--------------------------------------------------------------------|
g|-6---4-----4---6---4----------4-6---7-----------9-7-----------------|
D|---7---7-7---7---7---7-4----7---------9-7-9-9-9-----9-7-9-9-9-9-7---|


d|---------------------------------------------------------------------|
a|---------------------------------------------------------------------|
d|---------------------------------------------------------------------|
c|---------------------------------------------------------------------|
g|-6---4-----4---6---4----------4-6---7-----------9-7-------------/9---|
D|---7---7-7---7---7---7-4----7---------9-7-9-9-9-----9-7-9-9-9-9-/9---| x1


Chorus-1/ 1:20-1:23

  PM_______________________________________PM
d|--------------------------------------------4---|
a|--------------------------------------------5---|
d|--------------------------------------------6---|
c|-----------------------------------6--6-6-6-6---|
g|2-2-2-2-2-2-2-2---2-2-2-2-2-2-2-2--4--4-4-4-4---|
D|0-0-0-0-0-0-0-0---0-0-0-0-0-0-0-0---------------| x1


Chorus-2/ 1:23-1:28

     PM____________________________________________________________________PM
d|----------------------------------------------------------------------------4---|
a|----------------------------------------------------------------------------5---|
d|----------------------------------------------------------------------------6---|
c|9--9-9-9-9-9-9-9-9-9-9-9-9-9-9-9--9-9-9-9-9-9-9-9-9-9-9-9-9-9-9-9--6--6-6-6-6---|
g|7--7-7-7-7-7-7-7-7-7-7-7-7-7-7-7--7-7-7-7-7-7-7-7-7-7-7-7-7-7-7-7--4--4-4-4-4---|
D|0--0-0-0-0-0-0-0-0-0-0-0-0-0-0-0--0-0-0-0-0-0-0-0-0-0-0-0-0-0-0-0---------------| x1


Chorus-3/ 1:28-1:32

     PM____________________________________PM
d|--------------------------------------------4---|
a|--------------------------------------------5---|
d|--------------------------------------------6---|
c|9--9-9-9-9-9-9-9--9-9-9-9-9-9-9-9--6--6-6-6-6---|
g|7--7-7-7-7-7-7-7--7-7-7-7-7-7-7-7--4--4-4-4-4---|
D|0--0-0-0-0-0-0-0--0-0-0-0-0-0-0-0---------------| x1


Bridge-1/ 1:32-1:36

  PM___________PM
d|-----------------------------|
a|-----------------------------|
d|-----------------------------|
c|4-4-4-4-4-4-4-2--2-2-2-2-2---|
g|2-2-2-2-2-2-2-0--0-0-0-0-0---|
D|-----------------------------| x1


Verse-3/ 1:36-1:58

d|--------------------------------------------|
a|----------------------7---------------------|
d|--------------------------------------------|
c|-6-6-6-7-6-7--6-6-6-7---7--6-4-4-4-----4----|
g|-4-4----------4-4------------------7-7---7--|
D|--------------------------------------------|


d|---------------------------------------------|
a|----------------------7----------------------|
d|---------------------------------------------|
c|-6-6-6-7-6-7--6-6-6-7---7--------------------|
g|-4-4----------4-4----------------------------|
D|---------------------------4-2-2-2-0-0-2-0---| x2


Intro-2/  1:58-2:28

d|-----------------------------------------------------------------------|
a|-----------------------------------------------------------------------|
f|-----------1------------------------------------1----------------------|
c|-2-----------2-4-2-----2-------1----4-2-----------2-4-2----2-4/6-6-6---|
g|---4-2-4-4-----------0---0---2---2------4-2-4-4----------0-------------|
D|-----------------------------------------------------------------------|


d|-----------------------------------------------------------------------|
a|-----------------------------------------------------------------------|
f|-----------1------------------------------------1----------------------|
c|-2-----------2-4-2-----2-------1----4-2-----------2-4-2----2-4/6-6-4---|
g|---4-2-4-4-----------0---0---2---2------4-2-4-4----------0-------------|
D|-----------------------------------------------------------------------| x2


Verse-2/ 2:28-2:43

d|--------------------------------------------------------------------|
a|--------------------------------------------------------------------|
d|--------------------------------------------------------------------|
c|--------------------------------------------------------------------|
g|-6---4-----4---6---4----------4-6---7-----------9-7-----------------|
D|---7---7-7---7---7---7-4----7---------9-7-9-9-9-----9-7-9-9-9-9-7---|


d|---------------------------------------------------------------------|
a|---------------------------------------------------------------------|
d|---------------------------------------------------------------------|
c|---------------------------------------------------------------------|
g|-6---4-----4---6---4----------4-6---7-----------9-7-------------/9---|
D|---7---7-7---7---7---7-4----7---------9-7-9-9-9-----9-7-9-9-9-9-/9---| x1


Chorus-1/ 2:43-48

  PM_______________________________________PM
d|--------------------------------------------4---|
a|--------------------------------------------5---|
d|--------------------------------------------6---|
c|-----------------------------------6--6-6-6-6---|
g|2-2-2-2-2-2-2-2---2-2-2-2-2-2-2-2--4--4-4-4-4---|
D|0-0-0-0-0-0-0-0---0-0-0-0-0-0-0-0---------------| x1


Chorus-2/ 2:48-2:54

     PM____________________________________________________________________PM
d|----------------------------------------------------------------------------4---|
a|----------------------------------------------------------------------------5---|
d|----------------------------------------------------------------------------6---|
c|9--9-9-9-9-9-9-9-9-9-9-9-9-9-9-9--9-9-9-9-9-9-9-9-9-9-9-9-9-9-9-9--6--6-6-6-6---|
g|7--7-7-7-7-7-7-7-7-7-7-7-7-7-7-7--7-7-7-7-7-7-7-7-7-7-7-7-7-7-7-7--4--4-4-4-4---|
D|0--0-0-0-0-0-0-0-0-0-0-0-0-0-0-0--0-0-0-0-0-0-0-0-0-0-0-0-0-0-0-0---------------| x1


Chorus-3/ 2:54-2:58

     PM____________________________________PM
d|--------------------------------------------4---|
a|--------------------------------------------5---|
d|--------------------------------------------6---|
c|9--9-9-9-9-9-9-9--9-9-9-9-9-9-9-9--6--6-6-6-6---|
g|7--7-7-7-7-7-7-7--7-7-7-7-7-7-7-7--4--4-4-4-4---|
D|0--0-0-0-0-0-0-0--0-0-0-0-0-0-0-0---------------| x1


Bridge-1/ 2:58-3:02

  PM___________PM
d|-----------------------------|
a|-----------------------------|
d|-----------------------------|
c|4-4-4-4-4-4-4-2--2-2-2-2-2---|
g|2-2-2-2-2-2-2-0--0-0-0-0-0---|
D|-----------------------------| x1


Verse-3/ 3:02-3:25

d|--------------------------------------------|
a|----------------------7---------------------|
d|--------------------------------------------|
c|-6-6-6-7-6-7--6-6-6-7---7--6-4-4-4-----4----|
g|-4-4----------4-4------------------7-7---7--|
D|--------------------------------------------|


d|---------------------------------------------|
a|----------------------7----------------------|
d|---------------------------------------------|
c|-6-6-6-7-6-7--6-6-6-7---7--------------------|
g|-4-4----------4-4----------------------------|
D|---------------------------4-2-2-2-0-0-2-0---| x2


Solo/ 3:25-3:55
                                                                         
d|------------------------------------------------------|
a|-12h14-12---------12------12h14-12---------12---------|
d|-13----13---11h13-13------13----13---11h13-13---13b---|
c|------------------------------------------------------|
g|------------------------------------------------------|
D|------------------------------------------------------|


d|--------------------------------------------------------|
a|--------------------------------------------------------|
d|------------------L11/13/11-L9-11---L11/13/11-L9--------|
c|------9---11~-------------------------------------11~---|
g|-11-----------------------------------------------------|
D|--------------------------------------------------------|


d|-16----16---------11------11h12--------16---------11---|
a|-12----12---------12------12-----12h14-12---------12---|
d|-13----13---11h13-13-------------13----13---11h13-13---|
c|-------------------------------------------------------|
g|-------------------------------------------------------|
D|-------------------------------------------------------|

d|-----------------------------------------------------------------------------|
a|-----------------------------------------------------------------------------|
d|--L11/13/11-L9-11---L11/13/11-L9---------------------------------------------|
c|----------------------------------11~------11/13/11-9------11/13/11-9--------|
g|-------------------------------------------------------11--------------11~---|
D|-----------------------------------------------------------------------------|


d|-----------------------------------------------------|
a|-12h14-12---------12------12h14-12---------12---14---|
d|-13----13---11h13-13------13----13---11h13-13--------|
c|-----------------------------------------------------|
g|-----------------------------------------------------|
D|-----------------------------------------------------|

d|-------------------------------------14b-12-------|
a|----------------------------------14--------14~---|
d|-16b--16/13--13/16--16/11------11-----------------|
c|--------------------------------------------------|
g|--------------------------------------------------|
D|--------------------------------------------------|


d|------------------------------------------------|
a|-12h14-12---------12------12h14-12---------12---|
d|-13----13---11h13-13------13----13---11h13-13---|
c|------------------------------------------------|
g|------------------------------------------------|
D|------------------------------------------------|

d|---------------------------------------------|
a|-14b--14-12-14-12b--12b---12b----------------|
d|--------------------------11b--9-----11-9~---|
c|---------------------------------11----------|
g|---------------------------------------------|
D|---------------------------------------------|



Chorus-1/ 3:55-4:00

  PM_______________________________________PM
d|--------------------------------------------4---|
a|--------------------------------------------5---|
d|--------------------------------------------6---|
c|-----------------------------------6--6-6-6-6---|
g|2-2-2-2-2-2-2-2---2-2-2-2-2-2-2-2--4--4-4-4-4---|
D|0-0-0-0-0-0-0-0---0-0-0-0-0-0-0-0---------------| x1


Chorus-2/ 4:00-4:07

     PM____________________________________________________________________PM
d|----------------------------------------------------------------------------4---|
a|----------------------------------------------------------------------------5---|
d|----------------------------------------------------------------------------6---|
c|9--9-9-9-9-9-9-9-9-9-9-9-9-9-9-9--9-9-9-9-9-9-9-9-9-9-9-9-9-9-9-9--6--6-6-6-6---|
g|7--7-7-7-7-7-7-7-7-7-7-7-7-7-7-7--7-7-7-7-7-7-7-7-7-7-7-7-7-7-7-7--4--4-4-4-4---|
D|0--0-0-0-0-0-0-0-0-0-0-0-0-0-0-0--0-0-0-0-0-0-0-0-0-0-0-0-0-0-0-0---------------| x1


Chorus-3/ 4:07-4:11

     PM____________________________________PM
d|--------------------------------------------4---|
a|--------------------------------------------5---|
d|--------------------------------------------6---|
c|9--9-9-9-9-9-9-9--9-9-9-9-9-9-9-9--6--6-6-6-6---|
g|7--7-7-7-7-7-7-7--7-7-7-7-7-7-7-7--4--4-4-4-4---|
D|0--0-0-0-0-0-0-0--0-0-0-0-0-0-0-0---------------| x1


Bridge-1/ 4:11-4:15

  PM___________PM
d|-----------------------------|
a|-----------------------------|
d|-----------------------------|
c|4-4-4-4-4-4-4-2--2-2-2-2-2---|
g|2-2-2-2-2-2-2-0--0-0-0-0-0---|
D|-----------------------------| x1


Verse-3/ 4:15-4:38

d|--------------------------------------------|
a|----------------------7---------------------|
d|--------------------------------------------|
c|-6-6-6-7-6-7--6-6-6-7---7--6-4-4-4-----4----|
g|-4-4----------4-4------------------7-7---7--|
D|--------------------------------------------|


d|---------------------------------------------|
a|----------------------7----------------------|
d|---------------------------------------------|
c|-6-6-6-7-6-7--6-6-6-7---7--------------------|
g|-4-4----------4-4----------------------------|
D|---------------------------4-2-2-2-0-0-2-0---| x2


Intro-2/  4:38-4:54

d|-----------------------------------------------------------------------|
a|-----------------------------------------------------------------------|
f|-----------1------------------------------------1----------------------|
c|-2-----------2-4-2-----2-------1----4-2-----------2-4-2----2-4/6-6-6---|
g|---4-2-4-4-----------0---0---2---2------4-2-4-4----------0-------------|
D|-----------------------------------------------------------------------|


d|-----------------------------------------------------------------------|
a|-----------------------------------------------------------------------|
f|-----------1------------------------------------1----------------------|
c|-2-----------2-4-2-----2-------1----4-2-----------2-4-2----2-4/6-6-4---|
g|---4-2-4-4-----------0---0---2---2------4-2-4-4----------0-------------|
D|-----------------------------------------------------------------------| x1



Order:

intro-1  x1
intro-2  x2
verse-1  x1

intro-2  x1
verse-2  x1
chorus-1 x1
chorus-2 x1
chorus-3 x1
bridge-1 x1
verse-3  x2

intro-2  x2
verse-2  x1
chorus-1 x1
chorus-2 x1
chorus-3 x1
bridge-1 x1
verse-3  x2

solo

chorus-1 x1 
chorus-2 x1
chorus-3 x1
bridge-1 x1
verse-3  x2
intro-2  x1

            
            
Suggest correction
Creating personal tab
Creating personal tab
You can edit any tab online and save it as your Personal.

You can edit, replace or remove any tab part or add personal notes – all changes will be seen only by you.

Personal tabs can be accessed anytime from any device, even offline.
Learn more »
Give kudos to tab author, rate the tab!
1 2 3 4 5
comments
print report bad tab
guest
You may want to rate the tab now too:
select rating
Wanna post a correction for this tab? Suggest correction