Oops, an error
Loading. Please wait.

To All Of You tab

version 1
version 1

Whole song

Interactive

by CKY
10,922 views 24 this week
9 commentsread comments
1 2 3 4 5
x 12
add to favorites
×
Save as Personal and add changes to this tab that will be seen only by you. Learn more ›
×
You can save this tab as Personal to edit and correct it or add notes. All changes will be seen only by you. Learn more »
launch autoscroll
font size
0
reset
how to read this tab
guitar tuner
edit
Autoscroll
slow
fast
+/-
esc
set tempo
stop
Author
By Deron Miller 
From Volume 1 
Tab by John Houx with Deron Miller 

Tuning: 1 1/2 Steps Down (Low to High: Db Gb B E Ab Db) 

Chords 

 Em Bm E5/C D   Am Bm(II) C 
---------------------------- 
---------------------------- 
---------------------------- 
-5-----9----7---2--4------5- 
-7--5--7----9---3--5------7- 
-0--7--8----10--5--7------8- 

This song is based on backwards power chords, a lot of overdubs, and static up the wazoo. 

Em                           Bm 
The mirror doesn't look like them I guess it never will 

E5/C           D 
-------------------------- 
-------------------------- 
-------------------------- 
-9--9-9--9-7-----7---7--7- 
-7--7-7--7-7--10-9---9--9- 
-8--8-8--8-8--8-10--10-10- 
What would you say if I took a piece for me? 

Am                     Bm(II) 
Happiness is your best friend it doesn't appeal to me 

 C   D(II)    D5   D(II) 
--------------------- 
--------------------- 
--------------------- 
-5---4--------0----4- 
-7---5--------5----5- 
-8------------------- 

Have you ever seen me? 

As I talk it lets you down 
You're finally used to me 
But they never talk your way 

The universe is in your hands it doesn't appeal to me 
What would they say if I took a piece for me? 
Happiness is your best friend it doesn't appeal to me 
Have you ever seen me? 

As I talk it lets you down 
You're finally used to me 
But you never talk your way 

The mirror doesn't look like them I guess it never will 
What would you say if I took a piece for me? 
Happiness is your best friend it doesn't appeal to me 
Have you ever seen me?
 

© 2001 CKY and John Houx

            
            
Suggest correction
Creating personal tab
Creating personal tab
You can edit any tab online and save it as your Personal.

You can edit, replace or remove any tab part or add personal notes – all changes will be seen only by you.

Personal tabs can be accessed anytime from any device, even offline.
Learn more »
comments
print report bad tab
9 comments total. Showing first comments.
0 reply
ckyshane 10 Nov 12, 2002 07:00 PM

You have everything right just left out one part.. Played up near the middle..
--------------
--------------
--------------
---7-6-5------ 3X
-5------------
--------------
(then)

------------------------------
-------------------------------
-------------------------------
-3-5/7-5-3---3/5---5---5---3---
-----------5-----3---2---1-----
-------------------------------
IDR

0 reply
ckyshane 10 Nov 12, 2002 07:00 PM

They screwed it up so bad is suposed to be like this...........dame site

(2X)
------------------
------------------
------------------
-----7--6--5------
--5---------------
------------------

------------------------------------
------------------------------------
------------------------------------
3-5/7-5-3---3/5-----5-----5-------3--
----------5------3-----2------1------
-------------------------------------

0 reply
ckyshane 10 Nov 12, 2002 07:00 PM

what the hell they keep changing it on me..if u want it e-mail me and ill send it to you....
xxxckyxxxx@aol.com

guest
You may want to rate the tab now too:
select rating
Wanna post a correction for this tab? Suggest correction