Oops, an error
Loading. Please wait.

Back Door bass

1,657 views 6 this week
no commentswrite comment
1 2 3 4 5
3 more votes to show rating
add to favorites
×
Save as Personal and add changes to this tab that will be seen only by you. Learn more ›
×
You can save this tab as Personal to edit and correct it or add notes. All changes will be seen only by you. Learn more »
launch autoscroll
font size
0
reset
guitar tuner
edit
Autoscroll
slow
fast
+/-
esc
set tempo
stop
Author
Band: Clan of Xymox
Album: Medusa (1986)
Song: Back Door

Verse / intro:

G||------------------------|-------------------------||
D||------------------------|-------------------------||
A||--3---3-3--3---------3--|--3---3-3-3-3---------3--||
E||------------------------|-------------------------||


G||------------------------|-------------------------||
D||------------------------|-------------------------||
A||--1---1-1--1---------1--|--1---1-1-1-1---------1--||
E||------------------------|-------------------------||


G||------------------------|-------------------------||
D||------------------------|-------------------------||
A||------------------------|-------------------------||
E||--3---3-3--3---------3--|--3---3-3-3-3---------3--||


G||------------------------|-------------------------||
D||------------------------|-------------------------||
A||--1---1-1--1---------1--|--1---1-1-1-1---------1--||
E||------------------------|-------------------------||


Sometimes the last bar of this riff is played as:

             1/4
G||------------------------||
D||----------3b----3--1----||
A||--1----1----------------||
E||------------------------||


Last line of the verse + bridge before the chorus:

G||------------------------|-------------------------||
D||------------------------|-------------------------||
A||--3---3-3--3---------3--|--3---3-3-3-3---------3--||
E||------------------------|-------------------------||


G||------------------------|-------------------------||
D||------------------------|-------------------------||
A||--1---1-1--1---------1--|--1---1-1-1-1---------1--||
E||------------------------|-------------------------||

 
G||----------------------------------||
D||----------------------------------||
A||--4-4-4-4-4-4-4-4-4-4-4-4-4-4-4-4-||
E||----------------------------------||


Chorus:

G||----------------------------------|----------------------------------||
D||------------------1-1-1-1---------|------------------1-1-1-1-3-3-3-3-||
A||--3-3-3-3-3-3-3-3---------1-1-1-1-|--3-3-3-3-3-3-3-3-----------------||
E||----------------------------------|----------------------------------||


G||----------------------------------|----------------------------------||
D||--5-5-5-5-5-5-5-5-6-6-6-6-5-5-5-5-|----------------------------------||
A||----------------------------------|--3-3-3-3-3-3-3-3-3-3-3-3-3-3-3-3-||
E||----------------------------------|----------------------------------||


Then repeat verse. After verse comes something like that:

G||----------------------------------||
D||----------------------------------||
A||--3--3-3-3-3-3---3---3-3----------||
E||----------------------------------||

Then the verse riff is repeated, but the chord progression changes to:

G||-----|-----|-----|-----||
D||-----|-----|-----|-----||
A||--3--|-----|--1--|-----||
E||-----|--4--|-----|--1--||

While guitar solo repeat chorus riff as many times as needed.






            
            
Suggest correction
Creating personal tab
Creating personal tab
You can edit any tab online and save it as your Personal.

You can edit, replace or remove any tab part or add personal notes – all changes will be seen only by you.

Personal tabs can be accessed anytime from any device, even offline.
Learn more »
Give kudos to tab author, rate the tab!
1 2 3 4 5
comments
print report bad tab
guest
You may want to rate the tab now too:
select rating
Wanna post a correction for this tab? Suggest correction