Oops, an error
Loading. Please wait.

Naisho No Hanashi bass

by ClariS
2,552 views 6 this week
no commentswrite comment
1 2 3 4 5
1 last vote to show rating
add to favorites
×
Save as Personal and add changes to this tab that will be seen only by you. Learn more ›
×
You can save this tab as Personal to edit and correct it or add notes. All changes will be seen only by you. Learn more »
launch autoscroll
font size
0
reset
guitar tuner
edit
Autoscroll
slow
fast
+/-
esc
set tempo
stop
Author
Song: Naisho no Hanashi
Artist: ClariS (http://www.clarismusic.jp/)
Tabbed By : ChaelMi
e-mail: ikel_22@yahoo.com

Tuning: EADG

Intro (00:07)
|---------------------|---------------------|
|---------------------|---------------------|
|------5555-----------|------5555-----------|
|-5555------0000-2222-|-5555------0000-222--|



VerseI (00:17) "Kyo mo..."
|--------------------|------------------------|
|--------------------|------------------------|
|-5-5----------------|-5-5--------------987---|
|------5-5--0-0--2-2-|------5-5--44-5-10---70-|

(00:27) "Neboke..."
|-------------------------|-----------------------------|
|--------------------442--|---------------7-6-4---------|
|-----------------------4-|-2-22----------------7-5-4---|
|-2222-1111-0000-2222-----|-------0-00--5-------------7-|



VerseII (00:37) "Tsukue..."
|------------------------|---------------------|
|------------------------|---------------------|
|-5------474--7--------4-|-54-----45----4597---|
|--024--5------704--245--|---74--5--4--7----70-|

(00:47) "Zenryoku..."
|------------------------------------------------------------------|
|------------------------------------------------------------------|
|-------------------------------------2-2-22---7-7-77-------12-9-7-|
|-2-2-22---1-1-11---0-0-00---2-2-22---------------------545--------|



Pre-ChorusI (00:57) "Zutto..."
|-------------------|--------------------|
|-------------------|--------------------|
|-555----------4444-|-555-5555-7777-4444-|
|-----0000-222------|--------------------|

(01:07) "Doko ka no..."
|-------------------------------------|
|-------------------------------------|
|-5~--12~--9~--7-7-7--7h9-7--77777777-|
|---------------7-7-7-----------------|



ChorusI (01:17) "Sono toki ni..."
|---------------------|   |---------------------|
|---------------------|   |---------------------|
|-5555----------------|   |-5555----------------|
|------5555-0000-2222-|3x |------5555-0000-2233-|

(01:37) "Hey, Hey..."
|-----------------------------------------------------|
|-----------------------------------------------------|
|----------33---------------5h7--12-12-986-764-54-----|
|-55-3355-5--5---55-3355-5h7---------------------765\-|



VerseIII (01:47) "Sakki kara..."
|------------------------|-------------------|
|------------------------|-------------------|
|-5------474--7--------4-|-54------------597-|
|--024--5------705--245--|---74--5457--57----|

(01:57) "Atashi..."
|--------------------------------------------------|
|---------------14--------------------------7/97-7-|
|---997-7----7/---14-9---------7-7-------45-----9--|
|-2/---9------------------7-7---------57-----------|



Pre-ChorusII (02:07) "Nani mo..."
|-------------------|---------------------------|
|-------------------|-------12-1212-------------|
|-555----------4444-|-555-12-------12-7777-4444-|
|-----0020-999------|---------------------------|

(02:17) "Nano ni..."
|-------------------------------------9-|
|---------------------------------------|
|-5~--12~--9~--7-7-7--7h9-7--77777777---|
|---------------7-7-7-------------------|



ChorusII (02:27) "Ima sara..."
|---------------------|   |---------------------|
|---------------------|   |---------------------|
|-5555----------------|   |-5555----------------|
|------5555-0000-2222-|3x |------5555-0000-2233-|

(02:47) "Hey, Hey..."
|----------------------------|
|----------------------------|
|----------5--------------7--|
|-77-5577-7-7----77-5577-7-7-| //Slap Part is difficult.



Guitar Solo (02:56) xx
|---------------------|---------------------|---------------------|-----------------------|
|---------------------|---------------------|---------------------|-----------------------|
|-5555----------------|-5555-------------24-|-5555----------------|-5555------------------|
|------5555-0000-2222-|------5555-0000-24---|------5555-0000-2222-|------5555-0000-222222-|



ChorusIII (03:16) "Sono toki ni..."
|---------------------|---------------------|---------------------|-----------------------|
|---------------------|---------------------|---------------------|-----------------------|
|-5555----------------|-5555-------------24-|-5555----------------|-5555------------------|
|------5555-0000-2222-|------5555-000-424---|------5555-0000-2222-|------5555-0000-222222-|



Adlib (03:36) "Sono toki ni..."
|---------------------|---------------------|---------------------------------------|
|---------------------|---------------------|---------------------------------------|
|-6666----------------|-6666-------------35-|-6666-------------35-653----5----------|
|------6666-1111-3333-|------6666-1111-35---|------6666-1111-35------6-65-6-1111-33-|

|---------------------|------------------------------|---------------------|---------------------|
|---------------------|--------------------1217h1817-|---------------------|---------------------|
|-6666----------------|-6666--567-810118-10----------|-6666-------------35-|-6666--------------1-|
|------6666-1111-3333-|------6-----------------------|------6666-1111-35---|------6666-111-/\-1--|



| /  slide up
| \  slide down
| h  hammer-on
| p  pull-off


Please rate and comment!
Suggestions are welcome.

            
            
Suggest correction
Creating personal tab
Creating personal tab
You can edit any tab online and save it as your Personal.

You can edit, replace or remove any tab part or add personal notes – all changes will be seen only by you.

Personal tabs can be accessed anytime from any device, even offline.
Learn more »
Give kudos to tab author, rate the tab!
1 2 3 4 5
comments
print report bad tab
guest
You may want to rate the tab now too:
select rating
Wanna post a correction for this tab? Suggest correction