Oops, an error
Loading. Please wait.

Lugar Secreto chords

32 views 1 this week
no commentswrite comment
1 2 3 4 5
3 more votes to show rating
add to favorites
×
Save as Personal and add changes to this tab that will be seen only by you. Learn more ›
×
You can save this tab as Personal to edit and correct it or add notes. All changes will be seen only by you. Learn more »
launch autoscroll
font size
0
reset
transpose
0
reset
simplify chords
display chords
guitar tuner
edit
Autoscroll
slow
fast
+/-
esc
set tempo
stop
Strumming
There is no strumming pattern for this song yet. and get +5 IQ
intro
---0--------0--------0------------------0----
--0--0-0---0--0-0---0--0-0--0----------0-0---
-0----0---0----0---0----0--0---0------0---0--
---------------------------------------------
---------------------------------------------
0-------10-------8--------7---8--10-12-------

-----0--------0----------------12------12----
----0-0------0-0-----0--------0--12----12----
12-0---0-12-0---0---0--0-----0-----12--12----
---------------------------------------------
---------------------------------------------
------------------10--8-7-0------------------


Em              Bm7
solo junto a ti quiero estaaar..
C9                D9           D
en tu presencia encuentro la paz
Em               Bm7
solo junto a ti quiero estaaar...
C9                 D9             D
en tu presencia me quiero refujiar

G                  Bm7                     C9
no hay limites de tiempo en mi lugar secreto
             D         G
solo quiero pensar en ti
G                  Bm7                      C9
no hay limites de tiempo en mi lugar secreto
                D9    D
solo te quiero adoraaar
G                     Bm7
y cerrada la puerta poderte contemplar
C9                      C9 D
y cerrada la puerta adoraaar
G                      Bm7
y cerrada la puerta poderte con templar

en mi lugar secreto

            
            
Suggest correction
Creating personal tab
Creating personal tab
You can edit any tab online and save it as your Personal.

You can edit, replace or remove any tab part or add personal notes – all changes will be seen only by you.

Personal tabs can be accessed anytime from any device, even offline.
Learn more »
Give kudos to tab author, rate the tab!
1 2 3 4 5
comments
print report bad tab
guest
Wanna post a correction for this tab? Suggest correction