Oops, an error
Loading. Please wait.

Me Fui De Viaje tab

22 views 1 this week
no commentswrite comment
1 2 3 4 5
3 more votes to show rating
add to favorites
×
Save as Personal and add changes to this tab that will be seen only by you. Learn more ›
×
You can save this tab as Personal to edit and correct it or add notes. All changes will be seen only by you. Learn more »
launch autoscroll
font size
0
reset
how to read this tab
guitar tuner
edit
Autoscroll
slow
fast
+/-
esc
set tempo
stop
bueno...les dejo este temon del disco identificado...alguna duda
o sugerencia a mi mail (franserj@ aguante el tano!!!

Intro
E|-------------------------------------------------|
B|-------------------------------------------------|
G|-------------------------------------------------|
D|----9-7-9-------------------9-7-9----------------|
A|-2--7-5-7---2----8---8---2--7-5-7----------------|
E|-0----------0--0-6-0-6---0--------3-5-3-6-5-3-5--|

Verso
E|------------------------------------------------|
B|------------------------------------------------|
G|------------------------------------------------|
D|------------------------------------------------|
A|-2-----2-----75--2-----2-----5/7--2-----2------|
E|-0-0-0-0-0-0-53--0-0-0-0-0-0-3/5--0-0-0-0-0-0--|

E|----------------------|
B|----------------------|
G|----------------------|
D|------------5----7----|
A|-75/7---5--3----5----|
E|-53/5---3------------|

Verso 2
E|---------------------------------------------------|
B|---------------------------------------------------|
G|---------------------------------------------------|
D|---------------------------------------------------|
A|-7--7--5-7-7---7--7--5-7-7---7--7--5-7-7---3----5--|
E|-5--5--3-5-5---5--5--3-5-5---5--5--3-5-5---1----3--|

Estribillo
E|---------------------------|
B|---------------------------|
G|-9-----7-----6----5--------|
D|-9-----7-----6----5--------|
A|-7-----5~~~--4~~~-3~~~-----|
E|---------------------------|

E|---------------------------|
B|---------------------------|
G|-9-------------------------|
D|-9-----4-----5----7--------|
A|-7-----4-----5----7--------|
E|-------2-----3----5--------|

Intro

Verso
Me fui de viaje en la madrugada
Con una lluvia torrencial
Esperando el amanecer
Y ver mas claro el camino

Intro

Verso
La luz no estaba por ninguna parte,
El aire me empezó a marear
No veo el cielo no veo la tierra
Hay humo y niebla en densidad

Verso 2
Busco las líneas sobre el asfalto
Y la bruma devora la banquina
Si me detengo puede ser una tragedia
No veo quien esta atrás ni quien va adelante

Estribillo
Alcanzo a ver la claridad
Y es el sol que se asoma Bien!!!

Solo(improvisen no saque la base)

Verso
Va llegando el día y sigo el viaje
Decido pasar un camión
Y entre el humo aparece un micro
Toco el freno y ahí nomás

Verso 2
Pierdo la dirección
Hago trompo y al zanjon
Que lo remil parió
Patino en el barro
Que se detenga el auto,
Me voy a estrellar
Contra la columna
La columna del puente

Estribillo
El destino quiso darme
Otra oportunidad
Al recordar este momento
Solo siento gratitud.

A5

?Tranquilo que hasta el mejor piloto
Se puede pegar un flor de palo.?

A5

            
            
Suggest correction
Creating personal tab
Creating personal tab
You can edit any tab online and save it as your Personal.

You can edit, replace or remove any tab part or add personal notes – all changes will be seen only by you.

Personal tabs can be accessed anytime from any device, even offline.
Learn more »
Give kudos to tab author, rate the tab!
1 2 3 4 5
comments
print report bad tab
guest
Wanna post a correction for this tab? Suggest correction