Oops, an error
Loading. Please wait.

Rockabye tab

14,380 views 189 this week
3 commentsread comments
1 2 3 4 5
x 5
add to favorites
×
Save as Personal and add changes to this tab that will be seen only by you. Learn more ›
×
You can save this tab as Personal to edit and correct it or add notes. All changes will be seen only by you. Learn more »
launch autoscroll
font size
0
reset
how to read this tab
guitar tuner
edit
Autoscroll
slow
fast
+/-
esc
set tempo
stop
Andrew Foy's arrangement
https://www.youtube.com/watch?v=AFJoc3XmPtM

[Intro]
e|-0-0-----0-----------3--0h2----------------------------------------------0-|
B|-0-0-----0--------------3----3---0-----------3--0h1---1----3p1--1----------|
G|-0-0-----0--------------2----2---0-----------0--0-----0---------2----------|
D|--------------2---------0----0---0----0---------------------------2--------|
A|------x-----3---3-x------------x----------x-----3-----3--x------0---0--x-0-|
E|-0-0--x--0--------x------------x----3---3-x--3-----------x-------------x---|

e|---------------------------------------------------------------------------|
B|--4-4-4/5\4----------------------------------------------------------------|
G|---------------------------------------------------------------------------|
D|---------------------------------------------------------------------------|
A|--2------------------------------------------------------------------------|
E|---------------------------------------------------------------------------|

[Verse]
e|---------------------------------------------------------------------------|
B|-0------------------------------------------0-------------0---------------0|
G|---2-0-------0--0----------0-0-0----------------2-0------------2-0---------|
D|-------2-----0--0-----2-------------4---------------2---2----------2----2--|
A|--------------------3---3---------5-5-5-2-----2-----------------------3----|
E|-----------0----0-------------------------------------0------0-------------|

e|---------------------------------------------------------------------------|
B|--------------------0-----------------------------------------0------------|
G|---0-0-0-----2----------2-0------0--0---------0-0-0---------------2-0------|
D|----------------------------2----0--0----2-------------4--------------2----|
A|-3---------5-5-5-2----2----------------3---3---------5-5-5-2----2----------|
E|-------------------------------0----0--------------------------------------|

e|---------------------------------------------------------------------------|
B|------0--------------0-----------------------------------------------------|
G|-----------2-0------------0-0-0----2---------------------------------------|
D|----2----------2---2-------------------------------------------------------|
A|-----------------3------3--------5-5-5-2-----------------------------------|
E|--0------0-----------------------------------------------------------------|

[Pre-Chorus]
e|--------0------------------------------------------------------------------|
B|--------0----------0h1-1-0-0h1p0--------------0---0-0-0----------0---------|
G|-0-0-2--0-0-----------------------2--2-------------------h2p0h2--0--0------|
D|----------------2-----------------------4------------------------0---------|
A|-------------x-------3-----x---------5--5--x----2-----x----------------x---|
E|--------0----x-------------x---------------x----------x----------0-----x---|

e|---------------------------------------------------------------------------|
B|-----0h1-1-0-0h1p0---------3/7-7----7------0----------0h1-1-0-0h1p0--------|
G|---------------------2--2------0----0---0--0-----0--------------------2-2--|
D|--0-------------------------------------------h2---------------------------|
A|-------3-----x----------5---x---------x-------h2----x---3-----x---------5--|
E|-------------x--------------x-----7---x----0--------x---------x------------|

e|------------------------0----------------------------------0h2-------------|
B|------0---0-0-0---------0-0------0h1-1-0-0h1p0-------3-----3---------------|
G|----------------h2p0h2--0------------------------2-2-------0---------------|
D|-4-----------------------------0-------------------0-----------------------|
A|-5-x----2-----x--------------x-----3-----x--------------x-------2----------|
E|---x----------x---------0----x-----------x--------------x------------------|

[Chorus]
e|-2h3-2-0--0-2-3/7-7----3-3-3-3----p2------------------------4/7----3-3-3-3-|
B|----------3---------------------------3/7-7-7-7h8p7-5-5-7-8----------------|
G|----------2-------------------------------------------0--------------------|
D|--------------------------------0------0-----------------------------------|
A|---------------------3-------------------------------------------3---------|
E|----------0-------------------------------7-----------0--------------------|

e|---p2------2----2-2h3p2-0--0-2-3/7-7----3-3-3-3----p2----------------------|
B|------3----3------------------------------------------3/7-7-7-7h8p7-5-5-7-8|
G|-----------0---------------0------------------------------------------0----|
D|-0------0----------------------------------------0-----0-------------------|
A|--------------0-----------------------3------------------------------------|
E|---------------------------0------------------------------------------0----|
 
                          o    o
e|-4/7---3-3-3-3-----p2--------------3-2--2h3--3-----p2p0------------0-3-----|
B|----------------------------------------3----3---------------------3-------|
G|----------------------------------------0----0--------------0------2-------|
D|----------------0--------------------------------------------------0-------|
A|-----3--------------------------x---------------x---------3---3----x-------|
E|--------------------------------x-------0----0--x------------------x-------|

e|-0h2-2-----0---------------2--3--3/10--0----------0----0h2-2--p0-----------|
B|-3-----------3--3---------------------------------3----2----------3--------|
G|-2-----------------0------------------------------2----3-------------------|
D|-0-------------------------------------------2----0--0-0-------------------|
A|--------x-------2----2--x----------x-------3---3--x--------x---------------|
E|--------x---------------x-----0--0-x--------------x--------x---------------|

[Verse]
e|----0-0---0----------------------------------------------------------------|
B|--3-----3------0--------------------------------0--------------------------|
G|---------------------------------------------------------------------------|
D|------------------2-2-2---0h2-2-0--h2p0------------2-2-2---0h2-2-0--h2p0---|
A|--2-----------------x-----3-----3--x------6(\5)------x-----2-----2--x------|
E|------------0-------x--------------x-----------------x--------------x------|

e|---------------------------------------------------------------------------|
B|---------------------------------------------------------------------------|
G|----------------------------------------------------------------0----------|
D|---2---2--2-0h2---2-2--0h2--2----2-2--0-2-0-2---2/5-5----5-4-4----2-2------|
A|-------x----3---3-x----5------5--x---------------------x---3------x-----5--|
E|-0---0-x----------x--------------x--------------0------x-0--------x--------|

e|---------------------------------------------------------------------------|
B|---------------------------------------------------------------------------|
G|-0-0---0-0-------0---------------------------------------------------------|
D|-------------4-4---2-2-0h2-2----2-2--0h2-2----0h2-2---2-2--0-2-0-2---------|
A|-----5---x---5-----x------------x----3-----3--5-----5-x--------------------|
E|---------x---------x---0------0-x---------------------x--------------------|

e|---------------------------------------------------------------------------|
B|-0-0-0-0-0-------------------------------------0--0--------0-----0-----0---|
G|-0----------2p0--0-2-2-0--0h2--0------2-2-2-0---------0h2--0-0h2---0h2-----|
D|-----------------2-----------------4--0-----------2--------0---------------|
A|-----------------3--------5------5----2-----------3--------0---------------|
E|-0-------------------------------------------------------------------------|

e|---------------------------------------------------------------------------|
B|------1--------------------------------------------------------------------|
G|-0-2--2--0-0-2-------------------------------------------------------------|
D|------1--------------------------------------------------------------------|
A|------2--------------------------------------------------------------------|
E|---------------------------------------------------------------------------|

[Pre-Chorus]
e|---------------------------------------------------------------------------|
B|-0----------------0h1-1---0-0h1p0-------------------0---0----0-0-----------|
G|-0---------0-----------------------2--2--------------------------h2p0h2----|
D|----h2-------2------------------------------4------------------------------|
A|--------x------x----3---x----------x--5--x--5-5-x-----2----x-------x-------|
E|-0------x------x--------x----------x-----x------x----------x-------x-------|

e|---------------------------------------------------------------------------|
B|-0----------0h1-1----0-0h1p0---------3/7----------7------------------------|
G|-0---0-----------------------2-2---------------------0-0-0-----------------|
D|-------0-----------------------0--------------0----------------------------|
A|---x-----x------3--x---------x----x----x------x--------x-------------------|
E|-0-x-----x---------x---------x----x----x---7--x--------x-------------------|

e|---------------------------------------------------------------------------|
B|-0----------------0h1-1---0-0h1p0-------------------0---0----0-0-----------|
G|-0---------0-----------------------2--2--------------------------h2p0h2----|
D|----h2-------2------------------------------4------------------------------|
A|--------x------x----3---x----------x--5--x--5-5-x-----2----x-------x-------|
E|-0------x------x--------x----------x-----x------x----------x-------x-------|

e|-------------------------------------------0h2-----------------------------|
B|-0----------0h1-1----0-0h1p0---------3-------------------------------------|
G|-0---0-----------------------2-2-------------------------------------------|
D|-------0-----------------------0--------0----------------------------------|
A|---x-----x------3--x---------x----x--------x------2------------------------|
E|-0-x-----x---------x---------x----x--------x-------------------------------|

[Chorus]

e|--2h3-2-0--0--2-3/7-7----3-3-3-3-----p2---------------------------4/7------|
B|--3--------0-----------------------------3/7-7---7-7h8p7-5-5-7-8-----------|
G|--0--------0-----------------------------------------------0---------------|
D|----------------------------------0-------0--------------------------------|
A|-----------------------3-----------------------------------------------3---|
E|-----------0-----------------------------------7-----------0---------------|

e|--3-3-3-3----p2-------2---2-2h3p2-0---0-2-3/7-7----3-3-3-3----p2-----------|
B|----------------3-----3---3---------------------------------------3-----7--|
G|------------------------------------------------------------------------0--|
D|-----------0-------0----------------------------------------0--------0-----|
A|------------------------2------------------------3-------------------------|
E|--------------------------------------0------------------------------------|
 
e|-----------------------4/7------3-3-3-3----p2---------------------3-2--2h3-|
B|----7---7h8p7-5-5-7-8-------------------------(h3)---------------------3---|
G|----0-----------0------------------------------------------------------0---|
D|-----------------------------------------0---------------------------------|
A|------------------------------3------------------------------x-------------|
E|--7-------------0--------------------------------------------x---------0---|

e|--3-----p2p0----------0--3--0h2-2-----0------------2-3-3-3/10-0----------0-|
B|--3-------------------3-----3------------3-3-----------------------------3-|
G|--0--------------0----2-----2-----------------0--------------------------2-|
D|-----------------2----0-----0---------------------------------------2----0-|
A|-----x---------3---3--x------------x-------2----2--x--------------3---3--x-|
E|--0--x----------------x------------x---------------x---0-0---------------x-|

e|---0h2-2p0-----------3/7--3-3-----p2p0---------0--3--2h3--2---0------------|
B|---3--------3--3--0-------0-0------------------3-----3-----------3--3------|
G|---2-----------0-------------------------------0-----2--------------0--0---|
D|-0-0--------------------------------------2----------0---------------------|
A|--------x------2-----x---------x--------3---3--x------------x-------2-----2|
E|--------x------------x----0-0--x---------------x------------x--------------|

e|-----2-3--3/10-0---------0----0h2-2p0-----------3/7--3-p2p0--0--3--0h2p0---|
B|-------------------------3----3-------3---3--0---------------1-----3-------|
G|-------------------------2----2------------------------------0-----2-------|
D|-(0)----------------2----0--0-0------------------------------------0-------|
A|--x---------------3---3--x---------x------2------------------3-------------|
E|--x----0--0--------------x---------x-----------------0---------------------|

e|------------0------------------0-------------------------------------------|
B|--3-3----0--0(h1)--3p1---1---------------4---------------------------------|
G|-------0----0------------0------------2------------------------------------|
D|-------------------------2-2-----------------------------------------------|
A|----2-------3------------0----------2--------------------------------------|
E|---------------------------------------------------------------------------|


************************************

| h    Hammer-on
| p    Pull-off
| x    Dead note
| /    Slide up
| \    Slide down
| (n)  Ghost note
| o    Wrist thump
  

************************************

            
            
Suggest correction
Creating personal tab
Creating personal tab
You can edit any tab online and save it as your Personal.

You can edit, replace or remove any tab part or add personal notes – all changes will be seen only by you.

Personal tabs can be accessed anytime from any device, even offline.
Learn more »
comments
print report bad tab
3 comments total.
+1 reply
gluck 10 Jun 01, 2017 05:19 PM

¡In process!

+1 reply
gluck 10 Jun 06, 2017 10:06 PM

¡Listo! ya me aprendí esta canción, ahora vamos por la siguiente; Gracias por la tab.

0 reply
sblaske 10 Nov 05, 2017 04:33 PM

Reminds my of my own mother. Foy is a wonderful player and your work reflects the sound that is complicated to tab out. Thank you.
https://tabs.ultimate-guitar.com/c/clean_bandit/rockabye_tab.htm#

guest
You may want to rate the tab now too:
select rating
Wanna post a correction for this tab? Suggest correction