Oops, an error
Loading. Please wait.

Perfect Day tab

625 views 1 this week
no commentswrite comment
1 2 3 4 5
3 more votes to show rating
add to favorites
×
Save as Personal and add changes to this tab that will be seen only by you. Learn more ›
×
You can save this tab as Personal to edit and correct it or add notes. All changes will be seen only by you. Learn more »
launch autoscroll
font size
0
reset
how to read this tab
guitar tuner
edit
Autoscroll
slow
fast
+/-
esc
set tempo
stop
perfect day


clique girlz


TRANSCRIBED BY RUDY GUZMAN


guzman_84@hotmail.com


e:------------------------------------------------------------------------|
B:------------------------------------------------------------------------|
G:-9-9--9---9-----9-----9---9---9---9--4-4--4---4-----4-----4---4---4---4-|
D:-9-9--9---9-----9-----9---9---9---9--4-4--4---4-----4-----4---4---4---4-|
A:-7-7--7-7-7-7-7-7-7-7-7-7-7-7-7-7-7--2-2--2-2-2-2-2-2-2-2-2-2-2-2-2-2-2-|
E:------------------------------------------------------------------------|

e:-------------------------------------------------------------------------|
B:-------------------------------------------------------------------------|
G:-7-7--7---7-----7-----7---7---7---7--2-2--2---2-----2-----2---2---2----2-|
D:-7-7--7---7-----7-----7---7---7---7--2-2--2---2-----2-----2---2---2----2-|
A:-5-5--5-5-5-5-5-5-5-5-5-5-5-5-5-5-5--0-0--0-0-0-0-0-0-0-0-0-0-0-0-0--0-0-|
E:-------------------------------------------------------------------------|

e:------------------------------------------------------------------------|
B:------------------------------------------------------------------------|
G:-9-9--9---9-----9-----9---9---9---9--4-4--4---4-----4-----4---4---4---4-|
D:-9-9--9---9-----9-----9---9---9---9--4-4--4---4-----4-----4---4---4---4-|
A:-7-7--7-7-7-7-7-7-7-7-7-7-7-7-7-7-7--2-2--2-2-2-2-2-2-2-2-2-2-2-2-2-2-2-|
E:------------------------------------------------------------------------|

e:----------------------------------------------------------------------------------------|
B:----------------------------------------------------------------------------------------|
G:------------------------------------------2-2-2-2-2-2-2-2-2-4-4-4-4-4-5-5-5-5-5-7-7-7-7-|
D:-7-7--7---7-----7-----7---7---7---7--2-2--2-2-2-2-2-2-2-2-2-4-4-4-4-4-5-5-5-5-5-7-7-7-7-|
A:-5-5--5-5-5-5-5-5-5-5-5-5-5-5-5-5-5--0-0--0-0-0-0-0-0-0-0-0-2-2-2-2-2-3-3-3-3-3-5-5-5-5-|
E:----------------------------------------------------------------------------------------|

   on this perfect day   nothing standing in my way on this perfect day 
e:-0-0-0-0-0-0-0-0-0-0-0-----------------------------2-2-2-2-2-2-2-2-2-2-|
B:-0-0-0-0-0-0-0-0-0-0-0--3-3-3-3-3-3-3-3-3-3-3-3-3--3-3-3-3-3-3-3-3-3-3-|
G:-1-1-1-1-1-1-1-1-1-1-1--4-4-4-4-4-4-4-4-4-4-4-4-4--2-2-2-2-2-2-2-2-2-2-|
D:-2-2-2-2-2-2-2-2-2-2-2--4-4-4-4-4-4-4-4-4-4-4-4-4--0-0-0-0-0-0-0-0-0-0-|
A:-2-2-2-2-2-2-2-2-2-2-2--2-2-2-2-2-2-2-2-2-2-2-2-2----------------------|
E:-0-0-0-0-0-0-0-0-0-0-0-------------------------------------------------|
                           
  where nothing can go wrong             
e:---------------------------|
B:-2-2-2-2-2-2-2-2-2-2-2-2-2-|
G:-2-2-2-2-2-2-2-2-2-2-2-2-2-|
D:-2-2-2-2-2-2-2-2-2-2-2-2-2-|
A:-0-0-0-0-0-0-0-0-0-0-0-0-0-|
E:---------------------------|

   its perfect day      tomorrow is gonna come to soon  i could stay
e:-0-0-0-0-0-0-0-0-0-0----------------------------------2-2-2-2-2-2-2-2-2-2-|
B:-0-0-0-0-0-0-0-0-0-0--3-3-3-3-3-3-3-3-3-3-3-3-3-3-3-3-3-3-3-3-3-3-3-3-3-3-|
G:-1-1-1-1-1-1-1-1-1-1--4-4-4-4-4-4-4-4-4-4-4-4-4-4-4-4-2-2-2-2-2-2-2-2-2-2-|
D:-2-2-2-2-2-2-2-2-2-2--4-4-4-4-4-4-4-4-4-4-4-4-4-4-4-4-0-0-0-0-0-0-0-0-0-0-|
A:-2-2-2-2-2-2-2-2-2-2--2-2-2-2-2-2-2-2-2-2-2-2-2-2-2-2---------------------|
E:-0-0-0-0-0-0-0-0-0-0------------------------------------------------------|
                           
  Forever as I am             
e:---------------------------|
B:-2-2-2-2-2-2-2-2-2-2-2-2-2-|
G:-2-2-2-2-2-2-2-2-2-2-2-2-2-|
D:-2-2-2-2-2-2-2-2-2-2-2-2-2-|
A:-0-0-0-0-0-0-0-0-0-0-0-0-0-|
E:---------------------------|

e:-------------------------------------------------------------|
B:-----------------------------------5p3-5p3---3-5p3-5p3---3---|
G:-5-5-5-5-5--7-7-7-7-7--9-------------------4-----------4---4-|
D:-5-5-5-5-5--7-7-7-7-7--9-------------------------------------|
A:-3-3-3-3-3--5-5-5-5-5--7-------------------------------------|
E:-------------------------------------------------------------|

gt1
e:-7------7-----7---7-----7------10-----10-----10---10-----10------10-------10-----10---|
B:---7------7---------7-----7-------7------7-----------7------7--------7-------7--------|
G:-----7------7---7-----7-----7-------7------7----7------7------7---------7------7-----7|
D:-9-----------------------------9---------------------------------7--------------------|
A:--------------------------------------------------------------------------------------|
E:--------------------------------------------------------------------------------------|


   gt2
e:------------------------------------------------------------------------|
B:------------------------------------------------------------------------|
G:-9-9--9---9-----9-----9---9---9---9--4-4--4---4-----4-----4---4---4---4-|
D:-9-9--9---9-----9-----9---9---9---9--4-4--4---4-----4-----4---4---4---4-|
A:-7-7--7-7-7-7-7-7-7-7-7-7-7-7-7-7-7--2-2--2-2-2-2-2-2-2-2-2-2-2-2-2-2-2-|
E:------------------------------------------------------------------------|

  gt1
e:-10-------10---------9-------9------9----10--------9-------9-----|
B:----7--------7---------10------10-----------10--------9----------|
G:-------7--------7---------9-------9----9--------9--------9----9--|
D:-----------------------------------------------------------------|
A:-----------------------------------------------------------------|
E:-----------------------------------------------------------------|


  gt2
e:-------------------------------------------------------------------------|
B:-------------------------------------------------------------------------|
G:-7-7--7---7-----7-----7---7---7---7--2-2--2---2-----2-----2---2---2----2-|
D:-7-7--7---7-----7-----7---7---7---7--2-2--2---2-----2-----2---2---2----2-|
A:-5-5--5-5-5-5-5-5-5-5-5-5-5-5-5-5-5--0-0--0-0-0-0-0-0-0-0-0-0-0-0-0--0-0-|
E:-------------------------------------------------------------------------|

   gt1
e:-7------7-----7---7-----7------10-----10-----10---10-----10------10-------10-----10---|
B:---7------7---------7-----7-------7------7-----------7------7--------7-------7--------|
G:-----7------7---7-----7-----7-------7------7----7------7------7---------7------7-----7|
D:-9-----------------------------9---------------------------------7--------------------|
A:--------------------------------------------------------------------------------------|
E:--------------------------------------------------------------------------------------|

  gt2
e:------------------------------------------------------------------------|
B:------------------------------------------------------------------------|
G:-9-9--9---9-----9-----9---9---9---9--4-4--4---4-----4-----4---4---4---4-|
D:-9-9--9---9-----9-----9---9---9---9--4-4--4---4-----4-----4---4---4---4-|
A:-7-7--7-7-7-7-7-7-7-7-7-7-7-7-7-7-7--2-2--2-2-2-2-2-2-2-2-2-2-2-2-2-2-2-|
E:------------------------------------------------------------------------|

   gt1
e:-10-------10----------------------------------------|
B:----7--------7--------------------------------------|
G:-------7--------7-----------------------------------|
D:--------------------2-2-2-2-2--4-4-4-4-4--5-5-5-5-5-|
A:--------------------0-0-0-0-0--2-2-2-2-2--3-3-3-3-3-|
E:----------------------------------------------------|

   gt2
e:----------------------------------------------------------------------------------------|
B:----------------------------------------------------------------------------------------|
G:------------------------------------------2-2-2-2-2-2-2-2-2-4-4-4-4-4-5-5-5-5-5-7-7-7-7-|
D:-7-7--7---7-----7-----7---7---7---7--2-2--2-2-2-2-2-2-2-2-2-4-4-4-4-4-5-5-5-5-5-7-7-7-7-|
A:-5-5--5-5-5-5-5-5-5-5-5-5-5-5-5-5-5--0-0--0-0-0-0-0-0-0-0-0-2-2-2-2-2-3-3-3-3-3-5-5-5-5-|
E:----------------------------------------------------------------------------------------|


   on this perfect day   nothing standing in my way on this perfect day 
e:-0-0-0-0-0-0-0-0-0-0-0-----------------------------2-2-2-2-2-2-2-2-2-2-|
B:-0-0-0-0-0-0-0-0-0-0-0--3-3-3-3-3-3-3-3-3-3-3-3-3--3-3-3-3-3-3-3-3-3-3-|
G:-1-1-1-1-1-1-1-1-1-1-1--4-4-4-4-4-4-4-4-4-4-4-4-4--2-2-2-2-2-2-2-2-2-2-|
D:-2-2-2-2-2-2-2-2-2-2-2--4-4-4-4-4-4-4-4-4-4-4-4-4--0-0-0-0-0-0-0-0-0-0-|
A:-2-2-2-2-2-2-2-2-2-2-2--2-2-2-2-2-2-2-2-2-2-2-2-2----------------------|
E:-0-0-0-0-0-0-0-0-0-0-0-------------------------------------------------|
                           
  where nothing can go wrong             
e:---------------------------|
B:-2-2-2-2-2-2-2-2-2-2-2-2-2-|
G:-2-2-2-2-2-2-2-2-2-2-2-2-2-|
D:-2-2-2-2-2-2-2-2-2-2-2-2-2-|
A:-0-0-0-0-0-0-0-0-0-0-0-0-0-|
E:---------------------------|

   its perfect day      tomorrow is gonna come to soon  i could stay
e:-0-0-0-0-0-0-0-0-0-0----------------------------------2-2-2-2-2-2-2-2-2-2-|
B:-0-0-0-0-0-0-0-0-0-0--3-3-3-3-3-3-3-3-3-3-3-3-3-3-3-3-3-3-3-3-3-3-3-3-3-3-|
G:-1-1-1-1-1-1-1-1-1-1--4-4-4-4-4-4-4-4-4-4-4-4-4-4-4-4-2-2-2-2-2-2-2-2-2-2-|
D:-2-2-2-2-2-2-2-2-2-2--4-4-4-4-4-4-4-4-4-4-4-4-4-4-4-4-0-0-0-0-0-0-0-0-0-0-|
A:-2-2-2-2-2-2-2-2-2-2--2-2-2-2-2-2-2-2-2-2-2-2-2-2-2-2---------------------|
E:-0-0-0-0-0-0-0-0-0-0------------------------------------------------------|
                           
  Forever as I am            
e:---------------------------|
B:-2-2-2-2-2-2-2-2-2-2-2-2-2-|
G:-2-2-2-2-2-2-2-2-2-2-2-2-2-|
D:-2-2-2-2-2-2-2-2-2-2-2-2-2-|
A:-0-0-0-0-0-0-0-0-0-0-0-0-0-|
E:---------------------------|

e:----------------|
B:----------------|
G:-5-5-5-5-5-5--4-|
D:-5-5-5-5-5-5--4-|
A:-3-3-3-3-3-3--2-|
E:----------------|

  gt1 
e:---------------------------------------------------|
B:------------------10--9----------------------------|
G:-9---11--13---7---x---x---6---4---------9---11--13-|
D:-x---x---x----x---7---6---x---x---6--7--x---x---x--|
A:-7---9---11---5-----------4---2---x--x--7---9---11-|
E:----------------------------------4--5-------------|

  gt2
e:-------------------------5-4~~-----------------------------------|
B:-/5~~~-7~~~-9~~~\-3~~~---------2~~-----------5---7---9---5~~~~---|
G:------------------------------------4~~--------------------------|
D:----------------------------------------6--7---------------------|
A:-----------------------------------------------------------------|
E:-----------------------------------------------------------------|

  gt3
e:-0-0-0-0-0-0-0-0-0-0-0-----------------------------2-2-2-2-2-2-2-2-2-2-|
B:-0-0-0-0-0-0-0-0-0-0-0--3-3-3-3-3-3-3-3-3-3-3-3-3--3-3-3-3-3-3-3-3-3-3-|
G:-1-1-1-1-1-1-1-1-1-1-1--4-4-4-4-4-4-4-4-4-4-4-4-4--2-2-2-2-2-2-2-2-2-2-|
D:-2-2-2-2-2-2-2-2-2-2-2--4-4-4-4-4-4-4-4-4-4-4-4-4--0-0-0-0-0-0-0-0-0-0-|
A:-2-2-2-2-2-2-2-2-2-2-2--2-2-2-2-2-2-2-2-2-2-2-2-2----------------------|
E:-0-0-0-0-0-0-0-0-0-0-0-------------------------------------------------|
                           
            
e:---------------------------|
B:-2-2-2-2-2-2-2-2-2-2-2-2-2-|
G:-2-2-2-2-2-2-2-2-2-2-2-2-2-|
D:-2-2-2-2-2-2-2-2-2-2-2-2-2-|
A:-0-0-0-0-0-0-0-0-0-0-0-0-0-|
E:---------------------------|

  gt1
e:-------------------------5-4~~-----------------------|
B:-/5~~~-7~~~-9~~~\-3~~~---------2~~-----------5~~~~---|
G:------------------------------------4~~--------------|
D:----------------------------------------6--7---------|
A:-----------------------------------------------------|
E:-----------------------------------------------------|
  gt2
e:------------------------------------------|
B:------------------10--9-------------------|
G:-9---11--13---7---x---x---6---4---------9-|
D:-x---x---x----x---7---6---x---x---6--7--x-|
A:-7---9---11---5-----------4---2---x--x--7-|
E:----------------------------------4--5----|

  gt3
e:-0-0-0-0-0-0-0-0-0-0-0-----------------------------2-2-2-2-2-2-2-2-2-2-|
B:-0-0-0-0-0-0-0-0-0-0-0--3-3-3-3-3-3-3-3-3-3-3-3-3--3-3-3-3-3-3-3-3-3-3-|
G:-1-1-1-1-1-1-1-1-1-1-1--4-4-4-4-4-4-4-4-4-4-4-4-4--2-2-2-2-2-2-2-2-2-2-|
D:-2-2-2-2-2-2-2-2-2-2-2--4-4-4-4-4-4-4-4-4-4-4-4-4--0-0-0-0-0-0-0-0-0-0-|
A:-2-2-2-2-2-2-2-2-2-2-2--2-2-2-2-2-2-2-2-2-2-2-2-2----------------------|
E:-0-0-0-0-0-0-0-0-0-0-0-------------------------------------------------|
                           
             
e:---------------------------|
B:-2-2-2-2-2-2-2-2-2-2-2-2-2-|
G:-2-2-2-2-2-2-2-2-2-2-2-2-2-|
D:-2-2-2-2-2-2-2-2-2-2-2-2-2-|
A:-0-0-0-0-0-0-0-0-0-0-0-0-0-|
E:---------------------------|

e:------0----|
B:--------0--|
G:-----------|
D:---2-------|
A:-0---------|
E:-----------|

e:---------------------------|
B:---------------------------|
G:-2-2-2-2-2-2-2-2-2-2-2-2-2-|
D:-2-2-2-2-2-2-2-2-2-2-2-2-2-|
A:-0-0-0-0-0-0-0-0-0-0-0-0-0-|
E:---------------------------|

   on this perfect day   nothing standing in my way on this perfect day 
e:-0-0-0-0-0-0-0-0-0-0-0-----------------------------2-2-2-2-2-2-2-2-2-2-|
B:-0-0-0-0-0-0-0-0-0-0-0--3-3-3-3-3-3-3-3-3-3-3-3-3--3-3-3-3-3-3-3-3-3-3-|
G:-1-1-1-1-1-1-1-1-1-1-1--4-4-4-4-4-4-4-4-4-4-4-4-4--2-2-2-2-2-2-2-2-2-2-|
D:-2-2-2-2-2-2-2-2-2-2-2--4-4-4-4-4-4-4-4-4-4-4-4-4--0-0-0-0-0-0-0-0-0-0-|
A:-2-2-2-2-2-2-2-2-2-2-2--2-2-2-2-2-2-2-2-2-2-2-2-2----------------------|
E:-0-0-0-0-0-0-0-0-0-0-0-------------------------------------------------|
                           
  where nothing can go wrong             
e:---------------------------|
B:-2-2-2-2-2-2-2-2-2-2-2-2-2-|
G:-2-2-2-2-2-2-2-2-2-2-2-2-2-|
D:-2-2-2-2-2-2-2-2-2-2-2-2-2-|
A:-0-0-0-0-0-0-0-0-0-0-0-0-0-|
E:---------------------------|

   its perfect day      tomorrow is gonna come to soon  i could stay
e:-0-0-0-0-0-0-0-0-0-0----------------------------------2-2-2-2-2-2-2-2-2-2-|
B:-0-0-0-0-0-0-0-0-0-0--3-3-3-3-3-3-3-3-3-3-3-3-3-3-3-3-3-3-3-3-3-3-3-3-3-3-|
G:-1-1-1-1-1-1-1-1-1-1--4-4-4-4-4-4-4-4-4-4-4-4-4-4-4-4-2-2-2-2-2-2-2-2-2-2-|
D:-2-2-2-2-2-2-2-2-2-2--4-4-4-4-4-4-4-4-4-4-4-4-4-4-4-4-0-0-0-0-0-0-0-0-0-0-|
A:-2-2-2-2-2-2-2-2-2-2--2-2-2-2-2-2-2-2-2-2-2-2-2-2-2-2---------------------|
E:-0-0-0-0-0-0-0-0-0-0------------------------------------------------------|
                           
  Forever as I am            
e:---------------------------|
B:-2-2-2-2-2-2-2-2-2-2-2-2-2-|
G:-2-2-2-2-2-2-2-2-2-2-2-2-2-|
D:-2-2-2-2-2-2-2-2-2-2-2-2-2-|
A:-0-0-0-0-0-0-0-0-0-0-0-0-0-|
E:---------------------------|



    on this   perfect   day
e:-------------------------|
B:-------------------------|
G:-5-5-5-5-5--7-7-7-7-7--9-|
D:-5-5-5-5-5--7-7-7-7-7--9-|
A:-3-3-3-3-3--5-5-5-5-5--7-|
E:-------------------------|

                         x2
e:-------------------------|
B:-------------------------|
G:-5-5-5-5-5--7-7-7-7-7--9-|
D:-5-5-5-5-5--7-7-7-7-7--9-|
A:-3-3-3-3-3--5-5-5-5-5--7-|
E:-------------------------|


hillo son mex

23/09/09


            
            
Suggest correction
Creating personal tab
Creating personal tab
You can edit any tab online and save it as your Personal.

You can edit, replace or remove any tab part or add personal notes – all changes will be seen only by you.

Personal tabs can be accessed anytime from any device, even offline.
Learn more »
Give kudos to tab author, rate the tab!
1 2 3 4 5
comments
print report bad tab
guest
You may want to rate the tab now too:
select rating
Wanna post a correction for this tab? Suggest correction