Oops, an error
Loading. Please wait.

Song For The Broken tab

version 1
version 1

Whole song

Interactive

279 views 1 this week
no commentswrite comment
1 2 3 4 5
1 last vote to show rating
add to favorites
×
Save as Personal and add changes to this tab that will be seen only by you. Learn more ›
×
You can save this tab as Personal to edit and correct it or add notes. All changes will be seen only by you. Learn more »
launch autoscroll
font size
0
reset
how to read this tab
guitar tuner
edit
Autoscroll
slow
fast
+/-
esc
set tempo
stop
                                  --Intro--

Both Guitar
D#|-------------2~---------2~---------2~---------2~---------------------------|
A#|-------------5~---------5~---------5~---------5~---------------------------|
F#|-------------4~---------4~---------4~---------4~---------------------------|
C#|222222222----2~---------2~---------2~---------2~---------------------------|
G#|222222222------------------------------------------------------------------|
C#|222222222------------------------------------------------------------------|
   *********

                               --Pre-Verse--

Guitar 1
D#|---------------------------------------------------------------------------|
A#|---------------------------------------------------------------------------|
F#|---------------------------------------------------------------------------|  x2
C#|----2-222-------222-------222-0~-------------------------------------------|
G#|12\-2-222-------222-------222-0~-------------------------------------------|
C#|12\-2-222-------222-------222-0~-------------------------------------------|

Guitar 2
D#|---------------------------------------------------------------------------|
A#|------------7---------7----------------------------------------------------|
F#|----------7-9b11-----7-9b11------------------------------------------------|  x2
C#|---------------------------------------------------------------------------|
G#|---------------------------------------------------------------------------|
C#|---------------------------------------------------------------------------|


                                 --Verse 1--

Guitar 1
Keep this
D#|---------------------------------------------------------------------------|
A#|---------------------------------------------------------------------------|
F#|---------------------------------------------------------------------------|
C#|----2-222-------222-------222-0~-------------------------------------------|  
G#|12\-2-222-------222-------222-0~-------------------------------------------|
C#|12\-2-222-------222-------222-0~-------------------------------------------|

Guitar 2
D#|---------------------------------------------------------------------------|
A#|---------------------------------------------------------------------------|
F#|---16-17-16-12\9-7/4-------------------------------------------------------|
C#|14---------------------------------------10--9--7--------------------------|
G#|-------------------------7--5--7--9--10------------------------------------|
C#|---------------------------------------------------------------------------|

D#|---------------------------------------------------------------------------|
A#|---------------------------------------------------------------------------|
F#|---16-17-16-12\9-7/4-------------------------------------------------------|
C#|14-------------------------------------------------------------------------|
G#|-------------------------7--5---7/9---9/10--10/12--------------------------|
C#|---------------------------------------------------------------------------|

D#|---------------------------------------------------------------------------|
A#|---------------------------------------------------------------------------|
F#|---16-17-16-12\9-7/4-------------------------------------------------------|
C#|14---------------------------------------10--9--7--------------------------|
G#|-------------------------7--5--7--9--10------------------------------------|
C#|---------------------------------------------------------------------------|

D#|---------------------------------------------------------------------------|
A#|---------------------------------------------------------------------------|
F#|---16-17-16-12\9-7/4-------------------------------------------------------|
C#|14-------------------------------------------------------------------------|
G#|-------------------------7--5--7---------7--9--12--------------------------|
C#|---------------------------------------------------------------------------|


                               --Pre-Chorus--

Guitar 1
D#|---------------------------------------------------------------------------|
A#|---------------------------------------------------------------------------|
F#|---------------------------------------------------------------------------|
C#|5~-------------------------------------------------------------------------|
G#|5~-------------------------------------------------------------------------|
C#|5~-------------------------------------------------------------------------|

Guitar 2
D#|---------------------------------------------------------------------------|
A#|---------------------------------------------------------------------------|
F#|---------------------------------------------------------------------------|
C#|5~-------------------------------------------------------------------10-9-7|
G#|5~------------------------------------------------------------7-9-10-------|
C#|5~-------------------------------------------------------------------------|


                               --Chorus 1--

Both Guitar
D#|---------------------------------------------------------------------------|
A#|---------------------------------------------------------------------------|
F#|---------------------------------------------------------------------------|  x2
C#|-2222222222222222-0000000000000000-5555555555555555-7777777777777777-------|
G#|-2222222222222222-0000000000000000-5555555555555555-5555555555555555-------|
C#|-2222222222222222-0000000000000000-5555555555555555-4444444444444444-------|


                                --Break--
  

Guitar 1
D#|---------------------------------------------------------------------------|
A#|---------------------------------------------------------------------------|
F#|---------------------------------------------------------------------------|
C#|2----------2-2-2----------2-2-2----------2-2-0-----------------------------|
G#|2----------2-2-2----------2-2-2----------2-2-0-----------------------------|
C#|2----------2-2-2----------2-2-2----------2-2-0-----------------------------|

Guitar 2
D#|---------------------------------------------------------------------------|
A#|---------------------5-----------5-----------------------------------------|
F#|----------------~4-5---5~----------5-4-------------------------------------|
C#|---------------------------------------------------------------------------|
G#|---------------------------------------------------------------------------|
C#|---------------------------------------------------------------------------|

                               --Verse 2--
Guitar 1
Keep this
D#|---------------------------------------------------------------------------|
A#|---------------------------------------------------------------------------|
F#|---------------------------------------------------------------------------| 
C#|2----------2-2-2----------2-2-2----------2-2-0-----------------------------|
G#|2----------2-2-2----------2-2-2----------2-2-0-----------------------------|
C#|2----------2-2-2----------2-2-2----------2-2-0-----------------------------|

Guitar 2
D#|---------------------------------------------------------------------------|
A#|---------------------------------------------------------------------------|
F#|---16-17-16-12\9-7/4-------------------------------------------------------|
C#|14---------------------------------------10--9--7--------------------------|
G#|-------------------------7--5--7--9--10------------------------------------|
C#|---------------------------------------------------------------------------|

D#|---------------------------------------------------------------------------|
A#|---------------------------------------------------------------------------|
F#|---16-17-16-12\9-7/4-------------------------------------------------------|
C#|14-------------------------------------------------------------------------|
G#|-------------------------7--5---7/9---9/10--10/12--------------------------|
C#|---------------------------------------------------------------------------|

D#|---------------------------------------------------------------------------|
A#|---------------------------------------------------------------------------|
F#|---16-17-16-12\9-7/4-------------------------------------------------------|
C#|14---------------------------------------10--9--7--------------------------|
G#|-------------------------7--5--7--9--10------------------------------------|
C#|---------------------------------------------------------------------------|

D#|---------------------------------------------------------------------------|
A#|---------------------------------------------------------------------------|
F#|---16-17-16-12\9-7/4-------------------------------------------------------|
C#|14-------------------------------------------------------------------------|
G#|-------------------------7--5--7---------7--9--12--------------------------|
C#|---------------------------------------------------------------------------|


                               --Pre-Chorus--

Guitar 1
D#|---------------------------------------------------------------------------|
A#|---------------------------------------------------------------------------|
F#|---------------------------------------------------------------------------|
C#|5~-------------------------------------------------------------------------|
G#|5~-------------------------------------------------------------------------|
C#|5~-------------------------------------------------------------------------|

Guitar 2
D#|---------------------------------------------------------------------------|
A#|---------------------------------------------------------------------------|
F#|---------------------------------------------------------------------------|
C#|5~-------------------------------------------------------------------10-9-7|
G#|5~------------------------------------------------------------7-9-10-------|
C#|5~-------------------------------------------------------------------------|


                               --Chorus 2--

Both Guitar

D#|---------------------------------------------------------------------------|
A#|---------------------------------------------------------------------------|
F#|---------------------------------------------------------------------------|
C#|-2222222222222222-0000000000000000-5555555555555555-77777777-------------2*| 
G#|-2222222222222222-0000000000000000-5555555555555555-55555555-2-000-2-000---|
C#|-2222222222222222-0000000000000000-5555555555555555-44444444-2-000-2-000---|               
                                                                  ***   ***
D#|---------------------------------------------------------------------------|
A#|---------------------------------------------------------------------------|
F#|---------------------------------------------------------------------------|  
C#|-2222222222222222-0000000000000000-5555555555555555-7777777777777777-------|
G#|-2222222222222222-0000000000000000-5555555555555555-5555555555555555-------|
C#|-2222222222222222-0000000000000000-5555555555555555-4444444444444444-------|


                                 --Bridge--

Guitar 1
D#|---------------------------------------------------------------------------|
A#|---------------------------------------------------------------------------|
F#|---------------------------------------------------------------------------|
C#|2~-------------------------------2~----------------------------------------| x4
G#|2~-------------------------------2~----------------------------------------|
C#|2~-------------------------------2~----------------------------------------|

Guitar 2
D#|---------------------------------------------------------------------------|
A#|---------------------------------------5----------------------5------------|
F#|-----------------------------------------4--------------------4------------|
C#|2~-------------------------------2---------5-4---x-4--------x-5------------| x4
G#|2~-------------------------------2---------------x-5--------x--------------|
C#|2~-------------------------------2-----------------------------------------|


                              --Breakdown p.1--

Both Guitar
D#|---------------------------------------------------------------------------|
A#|---------------------------------------------------------------------------|
F#|---------------------------------------------------------------------------| x2
C#|-2-2--2-2-2--2-2-2-2---2-2--2-2-2-2--2-2-2---------------------------------|
G#|-2-2--2-2-2--2-2-2-2---2-2--2-2-2-2--2-2-2---------------------------------|
C#|-2-2--2-2-2--2-2-2-2---2-2--2-2-2-2--2-2-2---------------------------------| 
    * *  * * *  * * * *  * *  * * * *  * * * 


                              --Breakdown p.2--

Guitar 1
D#|---------------------------------------------------------------------------|
A#|---------------------------------------------------------------------------|
F#|---------------------------------------------------------------------------|
C#|-2-2--2-2---------2-2--2-2---------2-2--2-2--2-2--2-2---2-2--2-2-----------|
G#|-2-2--2-2---------2-2--2-2---------2-2--2-2--2-2--2-2---2-2--2-2-----------|
C#|-2-2--2-2---------2-2--2-2---------2-2--2-2--2-2--2-2---2-2--2-2-----------| 
    * *  * *         * *  * *         * *  * *  * *  * *   * *  * * 

Guitar 2
D#|--------------2------------2-2-2------------------------------2------------|
A#|------------3--------------3-3-3--------------------------3-----3---3------|
F#|----------4----------------4-4-4------------------------4---4-----4--------|
C#|---------------------------------------------------------------------------|
G#|---------------------------------------------------------------------------|
C#|---------------------------------------------------------------------------|

Guitar 1
D#|---------------------------------------------------------------------------|
A#|---------------------------------------------------------------------------|
F#|---------------------------------------------------------------------------|
C#|-2-2--2-2---------2-2--2-2---------2-2--2-2-2-2--2--2-2---2-2-2------------|
G#|-2-2--2-2---------2-2--2-2---------2-2--2-2-2-2--2--2-2---2-2-2------------|
C#|-2-2--2-2---------2-2--2-2---------2-2--2-2-2-2--2--2-2---2-2-2------------| 
    * *  * *         * *  * *         * *  * * * *  * * *   * * * 

Guitar 2
D#|--------------2------------2-2-2-------------------------------------------|
A#|------------3--------------3-3-3-------------------------------------------|
F#|----------4----------------4-4-4-------------------------------------------|
C#|---------------------------------------------------------------------------|
G#|---------------------------------------------------------------------------|
C#|---------------------------------------------------------------------------|



                              --Pre-Chorus--

Both Guitar
D#|---------------------------------------------------------------------------|
A#|---------------------------------------------------------------------------|
F#|---------------------------------------------------------------------------|
C#|5~-------------------------------------------------------------------------|
G#|5~-------------------------------------------------------------------------|
C#|5~-------------------------------------------------------------------------|


                               --Chorus 3--

Both Guitar

D#|---------------------------------------------------------------------------|
A#|---------------------------------------------------------------------------|
F#|---------------------------------------------------------------------------|
C#|-2222222222222222-0000000000000000-5555555555555555-77777777-------------2*| 
G#|-2222222222222222-0000000000000000-5555555555555555-55555555-2-000-2-000---|
C#|-2222222222222222-0000000000000000-5555555555555555-44444444-2-000-2-000---|               
                                                                  ***   ***
D#|---------------------------------------------------------------------------|
A#|---------------------------------------------------------------------------|
F#|---------------------------------------------------------------------------|  
C#|-2222222222222222-0000000000000000-5555555555555555-7777777777777777-------|
G#|-2222222222222222-0000000000000000-5555555555555555-5555555555555555-------|
C#|-2222222222222222-0000000000000000-5555555555555555-4444444444444444-------|


                                 --End--

Guitar 1
D#|---------------------------------------------------------------------------|
A#|---------------------------------------------------------------------------|
F#|---------------------------------------------------------------------------|
C#|-2----------------2----------------2---------------------------------------|
G#|-2----------------2----------------2---------------------------------------|
C#|-2----------------2----------------2---------------------------------------|
                                      *

Guitar 2
D#|---------------------------------------------------------------------------|
A#|-5----5-5-5-5-5-5-5----5-5-5-5-5-5-5---------------------------------------|
F#|-7b9--9-9-9-9-9-9-7b9--9-9-9-9-9-9-7b9-------------------------------------|
C#|---------------------------------------------------------------------------|
G#|---------------------------------------------------------------------------|
C#|---------------------------------------------------------------------------|

            
            
Suggest correction
Creating personal tab
Creating personal tab
You can edit any tab online and save it as your Personal.

You can edit, replace or remove any tab part or add personal notes – all changes will be seen only by you.

Personal tabs can be accessed anytime from any device, even offline.
Learn more »
Give kudos to tab author, rate the tab!
1 2 3 4 5
comments
print report bad tab
guest
You may want to rate the tab now too:
select rating
Wanna post a correction for this tab? Suggest correction