Oops, an error
Loading. Please wait.

Happy Days bass

594 views 6 this week
no commentswrite comment
1 2 3 4 5
1 last vote to show rating
add to favorites
×
Save as Personal and add changes to this tab that will be seen only by you. Learn more ›
×
You can save this tab as Personal to edit and correct it or add notes. All changes will be seen only by you. Learn more »
launch autoscroll
font size
0
reset
guitar tuner
edit
Autoscroll
slow
fast
+/-
esc
set tempo
stop
Author
Difficulty
-------------------------------------------------------------------------------
                             Happy Days - Closure In Moscow
-------------------------------------------------------------------------------
Tabbed by: MisfitActual 
E-mail: ctannershaw@gmail.com

Tuning: Standard EADG
Tempo: 160 bpm
Use a pick, make your life easier

This band is amazing, I wish there was more tabs for them. 

Intro
G|---------------------------------------------------------------------------|
D|---------------------------------------------------------------------------|
A|---------------------------------------------------------------------------|
E|-0~~~~~~-------------------------------------------------------------------|

Verse 1 "I won't let anyone have mercy..."
G|---------------------------------------------------------------------------|
D|---------------------------------------------------------------------------|
A|-2-0-------------------------------------------------------Repeat x4-------|
E|----2-0-00-00-00-0-12-00-00-00-0-12-00-00-00-00-0-12-00-00-----------------|

Chorus "Chasing happy days, tell me are you closer now..."
G|---------------------------------------------------------------------------|
D|---------------------------------------------------------------------------|
A|------------------------------------Repeat x2------------------------------|
E|0-0-0-0-0-0-0-0-0-0-5-5-5-3-0-0-0-0----------------------------------------|

"And I won't let anyone have mercy..."
G|---------------------------------------------------------------------------|
D|---------------------------------------------------------------------------|
A|-------2--2-2-0--0---2-0---------------------------------------------------|
E|0--0-0-------------3-----2-0-----------------------------------------------|

Pre-Verse ("We have all but given up...")
G|---------------------------------------------------------------------------|
D|---------------------------------------------------------------------------|
A|--------------------------------------------------------(x2)---------------|
E|0-00-00-00-0-12-00-00-00-0-12-00-00-00-00-0-12-00-00-----------------------|

Verse 2
G|---------------------------------------------------------------------------|
D|---------------------------------------------------------------------------|
A|-2-0------(wait 4 measures and repeat x3)----------------------------------|
E|-----2-0-------------------------------------------------------------------|

Chorus "Chasing happy days, tell me are you closer now..."
G|---------------------------------------------------------------------------|
D|---------------------------------------------------------------------------|
A|----------------------------2-0-------Repeat x2----------------------------|
E|0-0-0-0-0-0-0-0-0-0-5-5-5-3-----2-0----------------------------------------|

"And I won't let anyone have mercy..."
G|---------------------------------------------------------------------------|
D|---------------------------------------------------------------------------|
A|-------2--2-2-0--0------------Repeat x2------------------------------------|
E|0--0-0-------------3-0--0-0------------------------------------------------|

Repeat x2

Guitar Solo
G|---------------------------------------------------------------------------|
D|---------------------------------------------------------------------------|
A|------(wait 4 measures and repeat x4)--2-0---------------------------------|
E|-0-3---------------------------------------3-0-----------------------------|

Verse 3 "The future is fine..."                 Outro
G|---------------------------------------------|-----------------------------|
D|---------------------------------------------|-----------------------------|
A|----------------------------------------(x4)-|-----------(x5)--------------|
E|-7-7-77-7-7-77-7-5-5-55-5-5-3-3-3-0-0-0------|-0-0-3-5---------------------|

| /  slide up
| \  slide down
| h  hammer-on
| p  pull-off
| ~  sustain note
| +  harmonic
| x  Mute note
===============================================================================

            
            
Suggest correction
Creating personal tab
Creating personal tab
You can edit any tab online and save it as your Personal.

You can edit, replace or remove any tab part or add personal notes – all changes will be seen only by you.

Personal tabs can be accessed anytime from any device, even offline.
Learn more »
Give kudos to tab author, rate the tab!
1 2 3 4 5
comments
print report bad tab
guest
You may want to rate the tab now too:
select rating
Wanna post a correction for this tab? Suggest correction