Oops, an error
Loading. Please wait.

Let Yourself Be Huge tab

version 2
version 2

Whole song

Interactive

1,612 views 42 this week
no commentswrite comment
1 2 3 4 5
x 4
add to favorites
×
Save as Personal and add changes to this tab that will be seen only by you. Learn more ›
×
You can save this tab as Personal to edit and correct it or add notes. All changes will be seen only by you. Learn more »
launch autoscroll
font size
0
reset
how to read this tab
guitar tuner
edit
Autoscroll
slow
fast
+/-
esc
set tempo
stop
Author
Difficulty
                                              Let Yourself Be Huge           
                                           Let Yourself Be Huge (2011)                           
                                                  Cloudkicker

Transcribed by lVlaniac


This is the exact copy of the guitar section that i wrote for the guitar pro file of this song which i
uploaded earlier this year. I also included the piano chords if you want to
play the entire song on guitar. I hope you guys find it useful.


Guitar I - Standard Tuning (EADGBE)
Guitar II - Standard Tuning (EADGBE)
Piano - Standard Tuning (EADGBE)

Tempo= 107
4/4


Ghost Notes (noted in parenthesis) are just echo    

Intro Guitar (0:00 - 0:16)                                              
     Q     Q     Q     Q         Q      Q      Q      Q        
E||--------------------------|------------------------------|
B||--------------------------|------------------------------|
G||--2----(2)----4----(4)----|--(4)----(4)----(4)----(4)----| repeat last bar
D||--0----(0)----0----(0)----|--(0)----(0)----(0)----(0)----|    6 times
A||--------------------------|------------------------------|
E||--2----(2)----3----(3)----|--(3)----(3)----(3)----(3)----|


Cloudkicker is known for layering of sounds. This song is no different. After this point, passages keep
repeating themselves until the end as new passages are being added to the mix. 

Piano Chords (0:17 - 3:42)
     Q     Q     Q     Q        W                   H        Q     Q         Q      Q      Q      Q     
E||--------------------------|-------------------|-----------------------|------------------------------|
B||--------------------------|-------------------|-----------------------|------------------------------|
G||--2----(2)----4----(4)----|--L----------------|--L--------7----(7)----|--(7)----(7)----11----(11)----|
D||--0----(0)----0----(0)----|--L----------------|--L--------0----(0)----|--(0)----(0)-----0-----(0)----|
A||--------------------------|-------------------|-----------------------|------------------------------|
E||--2----(2)----3----(3)----|--L----------------|--L--------7----(7)----|--(7)----(7)----10----(10)----|


  Q     Q     Q     Q         Q      H.               H        Q     Q         Q      Q     Q     Q      
--------------------------|------------------------|-----------------------|----------------------------|
--------------------------|------------------------|-----------------------|----------------------------|
--2----(2)----4----(4)----|--(4)----(4)------------|--L--------7----(7)----|--(7)----(7)----6----(6)----|
--0----(0)----0----(0)----|--(0)----(0)------------|--L--------0----(0)----|--(0)----(0)----0----(0)----|
--------------------------|------------------------|-----------------------|----------------------------|
--2----(2)----3----(3)----|--(3)----(3)------------|--L--------7----(7)----|--(7)----(7)----5----(5)----|



Guitar I (1:17 - 4:21)
      E  E  E  E  E  E  E  E     E  E  E  E  E  E  E  E     E  E  E  E  E  E  E  E    
E||---0-----0-----0-----0-----|--0-----0-----0-----0-----|--0-----0-----0-----0-----|
B||------8-----8-----8-----8--|-----8-----8-----8-----8--|-----7-----7-----7-----7--|
G||---------------------------|--------------------------|--------------------------|
D||---------------------------|--------------------------|--------------------------|
A||---------------------------|--------------------------|--------------------------|
E||---------------------------|--------------------------|--------------------------|


  E  E  E  E  E  E  E  E     E  E  E  E  E  E  E  E     E  E  E  E  E  E  E  E   
--0-----0-----0-----0-----|--0-----0-----0-----0-----|--0-----0-----0-----------|
-----------------7--------|--------------------------|--------------------------|
-----7-----7-----------7--|-----7-----7-----7-----7--|-----7-----7-----7-----7--|
--------------------------|--------------------------|--------------------9-----|
--------------------------|--------------------------|--------------------------|
--------------------------|--------------------------|--------------------------|


  E  E  E  E  E  E  E  E     E  E  E  E  E  E  E  E  
--------------0-----------|--0-----------0-----------|
--7-----------------------|--------------------------|
-----7-----7-----7-----6--|-----6-----7-----7-----7--|
--------9-----------7-----|--------7-----------7-----|
--------------------------|--------------------------|
--------------------------|--------------------------|



Guitar II (1:55 - 3:42)
       Q    Q     Q    Q     Q    Q      Q     Q      Q    Q    Q    E   E        Q    E   E     E   E  Q   
E||-----------------------|-----------------------|-------------------------|------------------------------|
B||-----------------------|-----------------------|-------------------------|------------------------------|
G||---4----4S----11----4--|--4----4S----12----11--|--11----7----7----7h--9--|--9g11----9p--7----7p--6--6b--|
D||-----------------------|-----------------------|-------------------------|------------------------------|
A||-----------------------|-----------------------|-------------------------|------------------------------|
E||-----------------------|-----------------------|-------------------------|------------------------------|

  Q    Q    Q    Q     Q     Q    Q    Q     Q     Q    Q    Q     Q    Q    E  E  Q 
--------------------|---------------------|---------------------|---------------------|
--------------------|---------------------|---------------------|---------------------|
--6----4----4----2--|--2S----7----7----2--|--2S----9----9----6--|--6----6----7--6--4--|
--------------------|---------------------|---------------------|---------------------|
--------------------|---------------------|---------------------|---------------------|
--------------------|---------------------|---------------------|---------------------|





Duration Legend
---------------
W - whole
H - half
Q - quarter
E - 8th
S - 16th
T - 32nd
X - 64th
. - note dotted
|-n-|  - n-tuplets


Tablature Legend
----------------
L - tied note
x - dead note
g - grace note
(n) - ghost note
> - accentuded note
NH - natural harmonic
AH - artificial harmonic
TH - tapped harmonic
SH - semi harmonic
PH - pitch harmonic
h - hammer on
p - pull off
b - bend
br - bendRelease
pb - preBend
pbr - preBendRelease
brb - bendReleaseBend
\n/ - tremolo bar dip
\n - tremolo bar dive
-/n - tremolo bar Release up
/n\ - tremolo bar inverted dip
/n - tremolo bar return
-\n - tremolo bar Release down
S - shift slide
s - legato slide
/ -  slide into from below or out of upwards
\ -  slide into from above or out of downwards
~ - vibrato
W - wide vibrato
tr - trill
TP - tremolo picking
T - tapping
S - slap
P - pop
< - fade in
^ - brush up
v - brush down

            
            
Suggest correction
Creating personal tab
Creating personal tab
You can edit any tab online and save it as your Personal.

You can edit, replace or remove any tab part or add personal notes – all changes will be seen only by you.

Personal tabs can be accessed anytime from any device, even offline.
Learn more »
comments
print report bad tab
guest
You may want to rate the tab now too:
select rating
Wanna post a correction for this tab? Suggest correction