Oops, an error
Loading. Please wait.

Crucial Velocity bass

version 1
version 1

Whole song

Interactive

by Clutch
2,423 views 6 this week
3 commentsread comments
1 2 3 4 5
2 more votes to show rating
add to favorites
×
Save as Personal and add changes to this tab that will be seen only by you. Learn more ›
×
You can save this tab as Personal to edit and correct it or add notes. All changes will be seen only by you. Learn more »
launch autoscroll
font size
0
reset
guitar tuner
edit
Autoscroll
slow
fast
+/-
esc
set tempo
stop
The new song off of the upcoming Earth Rocker album.

UPDATE: I have gone over it and am now convinced that the song is in Drop D. 

I play it at 82 bpm, so the intro/first verse is actually two whole notes each.


G||--------------------|--------------------|
D||--------------------|--------------------|
A||--------------------|--------------------|
D||--0-----------------|--6-----------------|


  E  E  S E  S S  E  S  Q         
-----------------------------|
-----------------------------|
---------------3h-5--3h-5----|
--5--3--0-3--0---------------|


Chorus (My Rocket 88....)

  E  S S S S S S E  S S S S S S    E  S S S S S S E  S S S S S S  
--------------------------------|--------------------------------|
--------------------------------|--------------------------------|
--------------------------------|--------------------5-5-5-5-5-5-|
--3--0-0-0-0-0-0-3--0-0-0-0-0-0-|--3--0-0-0-0-0-0-3--------------|


Second/Third Verse

  Q     H.               E  E  E  E  H           Q     H.            
----------------------|-----------------------|----------------------|
----------------------|--------3-----L--------|----------------------|
--5\------------------|--3--5-----5-----------|--5\------------------|
----------------------|-----------------------|----------------------|

  E  E  S E  S S  E  S  Q         
-----------------------------|
-----------------------------|
---------------3h-5--3h-5----|
--5--3--0-3--0---------------|


Duration Legend
---------------
W - whole
H - half
Q - quarter
E - 8th
S - 16th
T - 32nd
X - 64th
. - note dotted
|-n-|  - n-tuplets


Tablature Legend
----------------
L - tied note
x - dead note
g - grace note
(n) - ghost note
h - hammer on
p - pull off
b - bend
/ -  slide into from below or out of upwards
\ -  slide into from above or out of downwards

            
            
Suggest correction
Creating personal tab
Creating personal tab
You can edit any tab online and save it as your Personal.

You can edit, replace or remove any tab part or add personal notes – all changes will be seen only by you.

Personal tabs can be accessed anytime from any device, even offline.
Learn more »
Give kudos to tab author, rate the tab!
1 2 3 4 5
comments
print report bad tab
3 comments total.
+2 reply
cjfin00 10 Jul 07, 2013 05:08 AM

I really like this song and it's a great tab in drop D, but I had a little trouble with the chorus. I played it like this:

Chorus (My Rocket 88....)

E S S S S S S E S S S S S S E S S S S S S E S S S S S S
--------------------------------|--------------------------------|
--------------------------------|--------------------------------|
--------------------------------|--------------------3-3-3-3-3-3-|
--3--0-0-0-0-0-0-3--0-0-0-0-0-0-|--3--0-0-0-0-0-0-3--------------|

I am hearing the 16th. notes on the end as a "C" on the A string.

Please correct me if I'm wrong.

+1 reply
cjfin00 10 Jul 07, 2013 05:13 AM

My bad, I didn't know I'm supposed to post this as a correction not a comment.
It won't happen again.

+1 reply
TheTee56 705 Jul 29, 2013 09:37 AM

You are right and I don't know how I got that wrong. Thank you for bringing that up.

guest
You may want to rate the tab now too:
select rating
Wanna post a correction for this tab? Suggest correction