Oops, an error
Loading. Please wait.

David Rose bass

by Clutch
94 views 1 this week
no commentswrite comment
1 2 3 4 5
2 more votes to show rating
add to favorites
×
Save as Personal and add changes to this tab that will be seen only by you. Learn more ›
×
You can save this tab as Personal to edit and correct it or add notes. All changes will be seen only by you. Learn more »
launch autoscroll
font size
0
reset
guitar tuner
edit
Autoscroll
slow
fast
+/-
esc
set tempo
stop
Author
Difficulty
[Intro]

G|------------------------------|
D|------------------------------|
A|----------------3-5~--3~------|
E|--5-3-0-5-3-0-------------5~--|


[Verse]

G|----------------------------------------------------------|
D|----------------------------------------------------------|
A|----------------------------------------------------------|
E|--5-3-0--5-3-0--5-3-0--5-3-0--4-2-0--5-3-0--5-3-0--5-3-0--|

G|----------------------------------------------------------|
D|----------------------------------------------------------|
A|-----------------------5-3-0-----------------------5-3-0--|
E|--4-2-0--5-3-0--5-3-0---------5-3-0--4-2-0--5-3-0---------|

G|------------------------------------------|
D|--5-5-5-5--5-5-3--------------------------|
A|-----------------5-3--5-5-5-5--5-5-3------|
E|-------------------------------------5-3--|

G|----------------------------------------------------------|
D|----------------------------------------------------------|
A|----------------------------------------------------------|
E|--5-3-0--5-3-0--5-3-0--5-3-0--4-2-0--5-3-0--5-3-0--5-3-0--|

G|----------------------------------------------------------|
D|----------------------------------------------------------|
A|-----------------------5-3-0-----------------------5-3-0--|
E|--4-2-0--5-3-0--5-3-0---------5-3-0--4-2-0--5-3-0---------|

G|------------------------------------------|
D|--5-5-5-5--5-5-3--------------------------|
A|-----------------5-3--5-5-5-5--5-5-3------|
E|-------------------------------------5-3--|


[Chorus]

G|-----------------------------------------------------------------------|
D|--------------------------------------5--------------------------------|
A|--------------------------------3-5-7---7------------------------------|
E|--5-5-5---3-4-5-3-5---5-5-5---5-------------5-5-5---3-4-5-3-5---5-5-5--|

G|-----------------------5--------|
D|----------5--------5-7---7------|
A|----3-5-7---7--5-7--------------|
E|--5------------------------3-4--|


[Verse]

G|----------------------------------------------------------|
D|----------------------------------------------------------|
A|----------------------------------------------------------|
E|--5-3-0--5-3-0--5-3-0--5-3-0--4-2-0--5-3-0--5-3-0--5-3-0--|

G|----------------------------------------------------------|
D|----------------------------------------------------------|
A|-----------------------5-3-0-----------------------5-3-0--|
E|--4-2-0--5-3-0--5-3-0---------5-3-0--4-2-0--5-3-0---------|

G|------------------------------------------|
D|--5-5-5-5--5-5-3--------------------------|
A|-----------------5-3--5-5-5-5--5-5-3------|
E|-------------------------------------5-3--|

G|----------------------------------------------------------|
D|----------------------------------------------------------|
A|----------------------------------------------------------|
E|--5-3-0--5-3-0--5-3-0--5-3-0--4-2-0--5-3-0--5-3-0--5-3-0--|

G|----------------------------------------------------------|
D|----------------------------------------------------------|
A|-----------------------5-3-0-----------------------5-3-0--|
E|--4-2-0--5-3-0--5-3-0---------5-3-0--4-2-0--5-3-0---------|

G|------------------------------------------|
D|--5-5-5-5--5-5-3--------------------------|
A|-----------------5-3--5-5-5-5--5-5-3------|
E|-------------------------------------5-3--|


[Chorus]

G|-----------------------------------------------------------------------|
D|--------------------------------------5--------------------------------|
A|--------------------------------3-5-7---7------------------------------|
E|--5-5-5---3-4-5-3-5---5-5-5---5-------------5-5-5---3-4-5-3-5---5-5-5--|

G|-----------------------5--------|
D|----------5--------5-7---7------|
A|----3-5-7---7--5-7--------------|
E|--5------------------------3-4--|


Bass and drums pause for guitar riff. Both kick back in
for the last bit of the riff with this:

G|--------------|
D|--------------|
A|--5-3~--------|
E|--------5-3~--|


[Bridge]

G|------------------------------------------------------------------------------------|
D|------------------------------------------------------------------------------------|
A|------------3-------------------3-5-3~-5~------------3-------------------3-5-3~-5~--|
E|--5-3-5-3-5----5~--3-5-3-5-3-4-------------5-3-5-3-5----5~--3-5-3-5-3-4-------------|

G|------------------------------------------------------------------------------------|
D|------------3-------------------3-5-3~-5~-------------------------------------------|
A|--5-3-5-3-5----5~--3-5-3-5-3-4-----------------------3-------------------3-5-3~-5~--|
E|-------------------------------------------5-3-5-3-5----5~--3-5-3-5-3-4-------------|


[Yeeaahhh,Yeah,Yeah]

G|--------------------------------------------------------------------------------------------|
D|----3~--------3~--------3~--------3~---------8~----------8~----------8~----------8~---------|
A|--5----5-3-5-----5-3-5-----5-3-5-----5-3-10-----10-8-10-----10-8-10-----10-8-10-----10-8-5--|
E|--------------------------------------------------------------------------------------------|

G|--------------------------------------------------------------------------------|
D|--3~--------3~--------3~--------3~----------------------------------------------|
A|-----5-3-5-----5-3-5-----5-3-5-----5-3----1~--------1~--------1~--------1~------|
E|---------------------------------------3-----3-1-3-----3-1-3-----3-1-3-----3-1--|

G|----------------------------|
D|----------------------------|
A|----------------------------|
E|--5~--3-5~--3-1~--3-1~-3~~--|


[Verse]

G|----------------------------------------------------------|
D|----------------------------------------------------------|
A|----------------------------------------------------------|
E|--5-3-0--5-3-0--5-3-0--5-3-0--4-2-0--5-3-0--5-3-0--5-3-0--|

G|----------------------------------------------------------|
D|----------------------------------------------------------|
A|-----------------------5-3-0-----------------------5-3-0--|
E|--4-2-0--5-3-0--5-3-0---------5-3-0--4-2-0--5-3-0---------|

G|------------------------------------------|
D|--5-5-5-5--5-5-3--------------------------|
A|-----------------5-3--5-5-5-5--5-5-3------|
E|-------------------------------------5-3--|

G|----------------------------------------------------------|
D|----------------------------------------------------------|
A|----------------------------------------------------------|
E|--5-3-0--5-3-0--5-3-0--5-3-0--4-2-0--5-3-0--5-3-0--5-3-0--|

G|----------------------------------------------------------|
D|----------------------------------------------------------|
A|-----------------------5-3-0-----------------------5-3-0--|
E|--4-2-0--5-3-0--5-3-0---------5-3-0--4-2-0--5-3-0---------|

G|------------------------------------------|
D|--5-5-5-5--5-5-3--------------------------|
A|-----------------5-3--5-5-5-5--5-5-3------|
E|-------------------------------------5-3--|


[Chorus]

G|-----------------------------------------------------------------------|
D|--------------------------------------5--------------------------------|
A|--------------------------------3-5-7---7------------------------------|
E|--5-5-5---3-4-5-3-5---5-5-5---5-------------5-5-5---3-4-5-3-5---5-5-5--|

G|-----------------------5--------|
D|----------5--------5-7---7------|
A|----3-5-7---7--5-7--------------|
E|--5------------------------3-4--|


Bass and drum pause again like before.

G|--------------|
D|--------------|
A|--5-3~--------|
E|--------5-3~--|

G|------------------------------------------------------------------------------------|
D|------------------------------------------------------------------------------------|
A|------------3-------------------3-5-3~-5~------------3-------------------3-5-3~-5~--|
E|--5-3-5-3-5----5~--3-5-3-5-3-4-------------5-3-5-3-5----5~--3-5-3-5-3-4-------------|

G|------------------------------------------------------------------------------------|
D|------------3-------------------3-5-3~-5~-------------------------------------------|
A|--5-3-5-3-5----5~--3-5-3-5-3-4-----------------------3-------------------3-5-3~-5~--|
E|-------------------------------------------5-3-5-3-5----5~--3-5-3-5-3-4-------------|


[Outro]

Bass sits out a second while the guitar starts the outro riff.
Kicks in on the end of the riff with this:


G|---------|
D|---------|
A|--5~~~~--|
E|---------|

G|-------------------------------------------------------|
D|--12-10-12-10~-----------------------------------------|
A|----------------12-10-12-10~--10-8-10-8~--8-5-8-5--5~--|
E|-------------------------------------------------------|

G|-------------------------------------------------------|
D|--12-10-12-10~-----------------------------------------|
A|----------------12-10-12-10~--10-8-10-8~--8-5-8-5--5~--|
E|-------------------------------------------------------|

G|-------------------------------------------------------|
D|--12-10-12-10~-----------------------------------------|
A|----------------12-10-12-10~--10-8-10-8~--8-5-8-5--5~--|
E|-------------------------------------------------------|

G|-------------------------------------------------------|
D|--12-10-12-10~-----------------------------------------|
A|----------------12-10-12-10~--10-8-10-8~--8-5-8-5--5~--|
E|-------------------------------------------------------|

G|-------------------------------------------------------|
D|--12-10-12-10~-----------------------------------------|
A|----------------12-10-12-10~--10-8-10-8~--8-5-8-5--5~--|
E|-------------------------------------------------------|

G|----------------------------------------------------------|
D|--12-10-12-10~--------------------------------------------|
A|----------------12-10-12-10~--10-8-10-8~--8-5-8-5--5~~~~--|
E|----------------------------------------------------------|


************************************
| ~   Vibrato
************************************

            
            
Suggest correction
Creating personal tab
Creating personal tab
You can edit any tab online and save it as your Personal.

You can edit, replace or remove any tab part or add personal notes – all changes will be seen only by you.

Personal tabs can be accessed anytime from any device, even offline.
Learn more »
Give kudos to tab author, rate the tab!
1 2 3 4 5
comments
print report bad tab
guest
You may want to rate the tab now too:
select rating
Wanna post a correction for this tab? Suggest correction