Oops, an error
Loading. Please wait.

Earth Rocker bass

version 1
version 1

Whole song

Interactive

by Clutch
3,539 views 6 this week
no commentswrite comment
1 2 3 4 5
2 more votes to show rating
add to favorites
×
Save as Personal and add changes to this tab that will be seen only by you. Learn more ›
×
You can save this tab as Personal to edit and correct it or add notes. All changes will be seen only by you. Learn more »
launch autoscroll
font size
0
reset
guitar tuner
edit
Autoscroll
slow
fast
+/-
esc
set tempo
stop
Author
Difficulty
Title track from their "Earth Rocker" album coming out in 2013.
Possibly the most psychedelic intro they've made.

Intro

     E  S S S S E  S S S S S S S S  
G||--------------------------------|
D||--5----------5------------------|
A||-----0-0-0-0----0-0-0-0-0-0-0-0-|
E||--------------------------------|


Verse (You can see how he moves up an octave in the video on their Youtube channel)

   S S S S S S S S S S S S  S S  S S  
-------------------------------------|
-------------------------------------|
--15-0-0-0-0-0-3-3-0-0-0-0-17-0-16-0-|
-------------------------------------|

Chorus

   E  S S S S  E   E  S S  E   E   
----------------------------------|
----------------------------------|
--------------------------10--12--|
--10--0-0-0-0-10--12--0-0---------|


   E   E   E   E   E  S S S S  E   E  S S S S S S  
--------------------------------------------------|
--------------------------------------------------|
--13--12--10--------------------------------------|
--------------12--10--0-0-0-0-10--12--0-0-5-0-4-0-|


  S S S S S S S S S S S S S S S S   
----------------------------------|
----------------------------------|
----------------------------------|
--3-3-3-3-3-3-3-3-5-5-5-5-5-5-5-5-|


"B-b-b-break it down...."

  S S S   E  S S S S S S S S S S S  
-----------------------------------|
-----------------------------------|
--------5g7--5---------------------|
--0-0-0--------0-0-0-0-0-0-0-0-0-0-|

"So don't look to me for answers..."

  S S S S E  E  S S S S S S S S  
--------------------------------|
--7-7-7-7-5--7------------------|
----------------3-0-0-3-0-0-3-0-|
--------------------------------|

  S S S S E  E  E.  E.  E     W  (Transition back to chorus)
---------------------------|-------------------||
--7-7-7-7-5--7-------------|-------------------||
----------------3---5------|-------------------||
------------------------3--|--1----------------||


Duration Legend
---------------
W - whole
H - half
Q - quarter
E - 8th
S - 16th
T - 32nd
X - 64th
. - note dotted
|-n-|  - n-tuplets


Tablature Legend
----------------
L - tied note
x - dead note
g - grace note
(n) - ghost note
h - hammer on
p - pull off
/ -  slide into from below or out of upwards
\ -  slide into from above or out of downwards

            
            
Suggest correction
Creating personal tab
Creating personal tab
You can edit any tab online and save it as your Personal.

You can edit, replace or remove any tab part or add personal notes – all changes will be seen only by you.

Personal tabs can be accessed anytime from any device, even offline.
Learn more »
Give kudos to tab author, rate the tab!
1 2 3 4 5
comments
print report bad tab
guest
You may want to rate the tab now too:
select rating
Wanna post a correction for this tab? Suggest correction