Oops, an error
Loading. Please wait.

Impetus bass

by Clutch
153 views 1 this week
no commentswrite comment
1 2 3 4 5
2 more votes to show rating
add to favorites
×
Save as Personal and add changes to this tab that will be seen only by you. Learn more ›
×
You can save this tab as Personal to edit and correct it or add notes. All changes will be seen only by you. Learn more »
launch autoscroll
font size
0
reset
guitar tuner
edit
Autoscroll
slow
fast
+/-
esc
set tempo
stop
Clutch - "Impetus"
Off of the 1997 EP "Impetus"
Transcribed by imspazzen

Tune down 1/4 step to match the recording.
Note that the bass is slightly out of tune with the guitar.
Bassline is mostly the same throughout, but I put the number of repetitions becuz I'm nice.

{[Intro]}
G|-----------------------------|
D|-----------------------------| 
A|-----------------------------|  x24
E|-3--1-3--1-3--1-3--1-3-3-3-3-|

then

G|------------|
D|------------|
A|------------|
E|-3----------|

guitar kicks in
G|-----------------------------|
D|-----------------------------| 
A|-----------------------------|  x8
E|-3--1-3--1-3--1-3--1-3-3-3-3-|


{[Verse]}
G|-----------------------------|
D|-----------------------------| 
A|-----------------------------|  x24
E|-3--1-3--1-3--1-3--1-3-3-3-3-|


"I will not relent..."

G|-----------------------------|
D|-----------------------------| 
A|-----------------------------|  x16
E|-3--1-3--1-3--1-3--1-3-3-3-3-|


"I will not relent..."

{[Outro]}
                              x3
G||-----------------------------||---------------------------|
D||*---------------------------*||---------------------------|
A||*---------------------------*||---------------------------|
E||--3--1-3--1-3--1-3--1-3--4---||-3--1-3--1-3--1-3--1-x-4---|

then
                              x3
G||-----------------------------||---------------------------|----------||
D||*---------------------------*||---------------------------|----------||
A||*---------------------------*||---------------------------|----------||
E||--3--1-3--1-3--1-3--1-3--4---||-3--1-3--1-3--1-3--1-3--4-4|-3--------||
____________________________________________________________________________________
Feel free to leave a comment for any questions/corrections!


Tab Legend:
_______________________
x = muted note

            
            
Suggest correction
Creating personal tab
Creating personal tab
You can edit any tab online and save it as your Personal.

You can edit, replace or remove any tab part or add personal notes – all changes will be seen only by you.

Personal tabs can be accessed anytime from any device, even offline.
Learn more »
Give kudos to tab author, rate the tab!
1 2 3 4 5
comments
print report bad tab
guest
You may want to rate the tab now too:
select rating
Wanna post a correction for this tab? Suggest correction