Oops, an error
Loading. Please wait.

Red Horse Rainbow bass

version 1
version 1

Whole song

by Clutch
1,513 views 3 this week
3 commentsread comments
1 2 3 4 5
x 5
add to favorites
×
Save as Personal and add changes to this tab that will be seen only by you. Learn more ›
×
You can save this tab as Personal to edit and correct it or add notes. All changes will be seen only by you. Learn more »
launch autoscroll
font size
0
reset
guitar tuner
edit
Autoscroll
slow
fast
+/-
esc
set tempo
stop
Tabbed By : Squier-Sucks132

Tuning : Standard

Intro:

G|----------------------|
D|----------------------|
A|----2--4--5-7--7h9-11-|x4
E|-4--------------------|


G|----------------------|
D|-11-9----9-11-11-9-11-|
A|------11--------------|intro&verse (x30 estimating)
E|----------------------|

-----------OR------------

G|----------------------|
D|----------------------|
A|-11-9----9-11-11-9-11-|intro&verse (x30 estimating)
E|------11--------------|

(Whatever sounds better to you)

Chorus:

G|---------------------------------|
D|---------------------------------|
A|-------------7-5--5-5--0-3-6-5-4-|x4
E|-5---6---5-7---------------------|

Verse

Chorus

Solo1/Bridge/Solo2:

G|-------------------|
D|-------------------|
A|-------------------|x65
E|-7-7-9-7-9-7-9-7-9-|

during the bridge he goes something like
G|-------------------|
D|-7-7-9-7-9-7-9-7-9-|
A|-------------------|
E|-------------------|

After playing that a few times he puts on some kind of octave effect or something im not 
sure what it is.

| /  slide up
| \  slide down
| h  hammer-on
| p  pull-off
| ~  vibrato
| +  harmonic
| x  Mute note
===============================================================================

            
            
Suggest correction
Creating personal tab
Creating personal tab
You can edit any tab online and save it as your Personal.

You can edit, replace or remove any tab part or add personal notes – all changes will be seen only by you.

Personal tabs can be accessed anytime from any device, even offline.
Learn more »
comments
print report bad tab
3 comments total.
0 reply
790FX 736 Mar 15, 2015 08:52 AM

Clearly wrong. Sorry, but this completly incorrect.
The verse is one octave lower, the chorus is total off and the outro is half right.

0 reply
Apple_pie1 10 Mar 16, 2015 09:20 AM

Clearly wrong. lol, the ending of your Intro is wrong too.
Your notes (Intro ending & Chorus) just doesn't fit with the song.

0 reply
grigoropoulosj 10 Nov 20, 2015 09:25 AM

This is what I think the main riff is:

G|-------------------|
D|-------------------|
A|-4--4-2-4---4-2----|
E|-------4-----------|


And the second one (outro):
G|--------------------|
D|--------------------|
A|-----7--------------|
E|-9-9----9-7h9-7h9p7-|

guest
You may want to rate the tab now too:
select rating
Wanna post a correction for this tab? Suggest correction