Oops, an error
Loading. Please wait.

Spacegrass bass

version 4
version 4

Whole song

Interactive

by Clutch
391 views 3 this week
no commentswrite comment
1 2 3 4 5
2 more votes to show rating
add to favorites
×
Save as Personal and add changes to this tab that will be seen only by you. Learn more ›
×
You can save this tab as Personal to edit and correct it or add notes. All changes will be seen only by you. Learn more »
launch autoscroll
font size
0
reset
guitar tuner
edit
Autoscroll
slow
fast
+/-
esc
set tempo
stop
Author
-------------------------------------------------------------------------------
			     Spacegrass - Clutch
-------------------------------------------------------------------------------

Tabbed By : Renae Furness
e-mail: myesp450@yahoo.com
I have all the different parts to the song, some what in order. There is a lot of repeating
Tuning: Standard, G,D,A,E,B  played on a 5 string bass

part 1 always repeats 3xs when ever its played
G|---------------------------------------------------------------------------|
D|---------------------------------------------------------------------------|
A|---------------------------------------------------------------------------|
E|--10-12-10--12---0--13-12--0-----------------------------------------------|
B|---------------------------------------------------------------------------|

part 2
G|---------------------------------------------------------------------------|
D|---------------------------------------------------------------------------|
A|---------------------------------------------------------------------------|
E|--10-12-10--------0--------------------0-----------------------------------|
B|------------12---------8-10-11-10-8----------------------------------------|

part 3
G|---------------------------------------------------------------------------|
D|---------------------------------------------------------------------------|
A|---------10--------10----10------------------------------------------------|
E|--10-12-------12--------------12---0---------------------------------------|
B|---------------------------------------------------------------------------|

part 4
G|---------------------------------------------------------------------------|
D|---------------------------------------------------------------------------|
A|---------10----------------------------------------------------------------|
E|--10-12-----12-10---12------------0----------------------------------------|
B|------------------------11-10-8--------------------------------------------|

part 5
G|---------------------------------------------------------------------------|
D|---------------------------------------------------------------------------|
A|---------------------------------------------------------------------------|
E|-8-10-8---0---6---8-8-0----0-----------------------------------------------|
B|------------------------8--------------------------------------------------|

part6
G|---------------------------------------------------------------------------|
D|---------------------------------------------------------------------------|
A|---------------------------------------------------------------------------|
E|-8-10-10--0--8-10-10-0-8-10-10--0-----8--10-10-0--8-10-10-0-8-10-8--0------|
B|---------------------------------------------------------------------------|

part 7
G|---------------------------------------------------------------------------|
D|---------------------------------------------------------------------------|
A|-------------------------------------10-12-10------------------------------|
E|-0---------10----------------10-12-----------------------------------------|
B|----10-12--------12---10-12------------------------------------------------|

            
            
Suggest correction
Creating personal tab
Creating personal tab
You can edit any tab online and save it as your Personal.

You can edit, replace or remove any tab part or add personal notes – all changes will be seen only by you.

Personal tabs can be accessed anytime from any device, even offline.
Learn more »
Give kudos to tab author, rate the tab!
1 2 3 4 5
comments
print report bad tab
guest
You may want to rate the tab now too:
select rating
Wanna post a correction for this tab? Suggest correction