Oops, an error
Loading. Please wait.

When Vegans Attack bass

by Clutch
1,733 views 3 this week
2 commentsread comments
1 2 3 4 5
1 last vote to show rating
add to favorites
×
Save as Personal and add changes to this tab that will be seen only by you. Learn more ›
×
You can save this tab as Personal to edit and correct it or add notes. All changes will be seen only by you. Learn more »
launch autoscroll
font size
0
reset
guitar tuner
edit
Autoscroll
slow
fast
+/-
esc
set tempo
stop
Author
Band: Clutch 
Song: When Vegans Attack
Album: From Beale Street to Oblivion
Tabbed by: djerzinski
Tuning: Standard

Here is another tab I have made,if you have any corrections 
or anything else just mail me at march_of_pig[@]hotmail.com .
I'm looking for some noise/alt./math rock guitar stuff, so if you know
interresting stuff or got some links in your bookmarks , 
let me know.

Maybe I'll try to tab the guitar parts if i'm not too busy.


Intro: x4
G|----------------------------------16-16-16p14------------|
D|----------------------------------------------12h14------|
A|-14-14-14-14--14-14-14-14--14-14--------------------14---|
E|---------------------------------------------------------|

Pre-chorus:                                  
G|------------------------------------------------------------------------|
D|------------------------------------------------------------------------|
A|-3-3-3-3--3-3-3-3--3-3-3-3--3-3-4---5-5-5-5--5-5-5-5--5-5-5-5--5-5-5-5--|
E|------------------------------------------------------------------------|

(and next time, play that in addition of the pre-chorus riff)
G|---------------------------------------------------------------------------------------|
D|---------------------------------------------------------------------------------------|
A|-8-8-8-8--8-8-8-8--8-8-8-8--8-8-8-8--9---10-10--10-10-10-10--10-10-10-10--10-10-10-10--|
E|---------------------------------------------------------------------------------------|


Verse: x10
G|--------------------------|
D|--0-0-3-0-r-0--0-3-0------|
A|--------------------------|
E|--------------------------|

Pre-chorus

Chorus: x4
G|-------------------------------|
D|------5------------------------|
A|--5-7----0-5-7-----------------|
E|----------------0-5-0-8-8------|

Verse

Pre-chorus

Chorus (x8)

Bridge: x4
G|----------------------------------------|
D|----------------------------------7-9/--|
A|----------------------------7-8-9-------|
E|-7-7-7-7--7-7-7-7--7-7-7-7--------------|

Intro riff (solo)

Pre-chorus

Chorus

Outro:
G|---------------------------------------|
D|------5--------------------------------|
A|--5h7---5---3h5-3h(5)--3-5-3--7p5------|
E|----------------------------------8p5--|

That's it.



"I got no problems with vegans. Let's be clear on that. But have you ever met
someone who has concocted his or her own convenient first-world philosophy?
Cherry picked all those bits of radicalism that appealed to them and threw
out the ugly bits? Someone who thinks they're enlightened but are really jut
a victim of the own peer driven self-congratulatory bullshit? I have. There's
lots of those types in Washington D.C."
(from a little piece Neil did for the 2007 Roadburn Festival)

How’s that hardcore fanzine? Still take the piss?
Y and T got records, demos on cassette.
Summer of the seven inch. Too cool for school.
Manifestos at Kinko’s, pinko commies play no fools.
I feel the spirit moving over me.
There are clouds beneath my feet.
When vegans attack on ten speed bikes.
Tattoos with meaning, American Spirit Lights.
It’s hard to smoke ‘em when you got to be runnin’
Congressional and D.C.P.D.
Lafayette Park undercovers,
The saddest sight you ever see, ever see.
Tear gas electric! You know I can’t quit this riot.
Strictly professional insurrectionist kid, and I can’t deny it.
I feel the spirit moving over me.
There are clouds beneath my feet.
When vegans attack on ten speed bikes.
Tattoos with meaning, American Spirit Lights .
Freshmen in fatigues. You know he’s fighting for his right.
Copious note taker. American Spirit Lights.
I feel the spirit moving over me.
I feel the spirit moving over me.
There are clouds beneath my feet.
When vegans attack on ten speed bikes.
Tattoos with meaning, American Spirit Lights .
Freshmen in fatigues. You know he’s fighting for his right.
Copious note taker. American Spirit Lights

            
            
Suggest correction
Creating personal tab
Creating personal tab
You can edit any tab online and save it as your Personal.

You can edit, replace or remove any tab part or add personal notes – all changes will be seen only by you.

Personal tabs can be accessed anytime from any device, even offline.
Learn more »
Give kudos to tab author, rate the tab!
1 2 3 4 5
comments
print report bad tab
2 comments total.
0 reply
TheTee56 705 May 10, 2012 02:41 AM

I believe in the outro, the 3 should be a 0.

G|---------------------------------------|
D|------5--------------------------------|
A|--5h7---5---3h5-3h(5)--0-5-3--7p5------|
E|----------------------------------8p5--|

Here.

But other than that the rest is great, thanks for putting this up.

0 reply
TheTee56 705 May 10, 2012 02:42 AM

SORRY, CORRECTION TO MY CORRECTION:

G|---------------------------------------|
D|------5--------------------------------|
A|--5h7---5---3h5-3h(5)--0-3-5--7p5------|
E|----------------------------------8p5--|


0-3-5. Sorry.

guest
You may want to rate the tab now too:
select rating
Wanna post a correction for this tab? Suggest correction