Oops, an error
Loading. Please wait.

Witchdoctor bass

by Clutch
694 views 1 this week
no commentswrite comment
1 2 3 4 5
3 more votes to show rating
add to favorites
×
Save as Personal and add changes to this tab that will be seen only by you. Learn more ›
×
You can save this tab as Personal to edit and correct it or add notes. All changes will be seen only by you. Learn more »
launch autoscroll
font size
0
reset
guitar tuner
edit
Autoscroll
slow
fast
+/-
esc
set tempo
stop
Author
Difficulty
Another great song from Strange Cousins.

INTRO/OUTRO

     Q    E  E  Q    S S S S    E  S S S S Q    E  S S S S
G||--------------------------|-----------------------------|
D||--------------------------|-----7-5-7-5-7----5----------|
A||------------------7-5-7-5-|--7------------------7-5-7-5-|
E||--0----3--5--7------------|-----------------------------|


  E  S S E  E  H
------------------------|
------------------------|
-----5------------------|
--7----7-5--7--L--------|


VERSE

  E  S S E  E  E  Q.        E  S S E  Q.     Q
-------------------------|------------------------|
-------------------------|------------------------|
-------------------------|------------------------|
--5--2-0-2--5--2---------|--5--2-0-2--5------L----|


BRIDGE

  E  E  E  E  E  E  Q       E  E  Q     E  E  Q
-------------------------|--------------------------|
-------------------------|--------------------------|
-----------------3--2----|--------------------------|
--5--0--2--5--0----------|--0--2--5\----0--2--5\----|



CHORUS                       (connector back to verse)

  E.  S E.  S E.  S S S S S    E.  S E.  S E.  E.  E
----------------------------|-------------------------|
----------------------------|-------------------------|
------5-7---5-7-------------|------5-7---5-7---L---L--|
--0---------------0-3-3-3-3-|--0----------------------|



SOLO (I'm a little iffy about this one. The general sound is right, but it wouldn't do 
any harm if you played with it yourself.)

                         (x4)                       (x4)
  E.  S E.  S S  S E.  S S S    E.  S E.  S S  S E.  S S S
-----------------------------|-----------------------------||
--------5--------------------|--------7--------------------||
--------------7p-5-7---5-----|--------------9p-7-9---7-----||
--0---3-----0------------7-5-|--0---5-----0------------9-7-||




Duration Legend
---------------
W - whole
H - half
Q - quarter
E - 8th
S - 16th
T - 32nd
X - 64th
. - note dotted
|-n-|  - n-tuplets


Tablature Legend
----------------
L - tied note
x - dead note
g - grace note
(n) - ghost note
h - hammer on
p - pull off
b - bend
/ -  slide into from below or out of upwards
\ -  slide into from above or out of downwards

            
            
Suggest correction
Creating personal tab
Creating personal tab
You can edit any tab online and save it as your Personal.

You can edit, replace or remove any tab part or add personal notes – all changes will be seen only by you.

Personal tabs can be accessed anytime from any device, even offline.
Learn more »
Give kudos to tab author, rate the tab!
1 2 3 4 5
comments
print report bad tab
guest
You may want to rate the tab now too:
select rating
Wanna post a correction for this tab? Suggest correction