Oops, an error
Loading. Please wait.

Good Girls Go Bad bass

version 1
version 1

Whole song

Interactive

1,257 views 1 this week
no commentswrite comment
1 2 3 4 5
3 more votes to show rating
add to favorites
×
Save as Personal and add changes to this tab that will be seen only by you. Learn more ›
×
You can save this tab as Personal to edit and correct it or add notes. All changes will be seen only by you. Learn more »
launch autoscroll
font size
0
reset
guitar tuner
edit
Autoscroll
slow
fast
+/-
esc
set tempo
stop
Difficulty
Cobra Starship Good Girls Go Bad Bass Tablature

Intro
G|------------------------------------------------------------------------|
D|-7-5-7-5----------------------------------------------------------------| 
A|------------------------------------------------------------------------|
E|----------5-5-5-5-5-5-5-3-3-3-3-3-3-3-5-5-5-5-5-5-5-3-3-3-3-3-3-3-3-0-0-|
            HEEEYYYYY!!!!!
Verse
G|-----------------------------------------------------|
D|-----------------------------------------------------|
A|-----------------------------------------------------|
E|-0-0---------5-5-5-5-5-5-5-5-5-5-3-3-3-3-3-3-3-3-3-3-|
               She Was So Shy. . .
Chorus
G|-------------------------------------------------------------------------|
D|-------------------------------------------------------------------------|
A|-------------------------------------------------------------------------|
E|-5-5-5-5-5-5-5-5-3-3-3-3-3-3-3-3-4-4-4-4-4-4-4-4-7-7-7-7-7-7-7-7-7-7-7-7-|
   I Make The Good Girls Go Bad. . .
G|-------|
D|-------|
A|-------|
E|-7-7-7-|

G|---------------------------------------------------------|
D|---------------------------------------------------------|
A|---------------------------------------------------------|
E|-5-5-5-5-5-5-5-3-3-3-3-3-3-3-5-5-5-5-5-5-5-3-3-3-3-3-3-3-|     
   You Heard That I Was Trouble. . .
G|------------------------|
D|---------------7-5-7-5--|
A|------------------------|
E|-4-4-4-4-4-4-4----------|

2nd Verse
G|---------------------------------------------------------|
D|---------------------------------------------------------|
A|---------------------------------------------------------|
E|-5-5-5-5-5-5-5-3-3-3-3-3-3-3-4-4-4-4-4-4-4-5-5-5-5-5-5-5-|
   Hey! Hey! Hey!. . .

G|-------------------------------------------------------------------------|
D|-------------------------------------------------------------------------|
A|-------------------------------------------------------------------------|
E|-0-0-------0-0-------------------5-5-5-5-5-5-5-5-5-5-3-3-3-3-3-3-3-3-3-3-|
   I Know Your Type. . .           She Was So Shy. . .

2nd Chorus
G|-----------------------------------------------------------------------|
D|-----------------------------------------------------------------------|
A|-----------------------------------------------------------------------|
E|-5-5-5-5-5-5-5-5-3-3-3-3-3-3-3-3-4-4-4-4-4-4-4-4-7-7-7-7-7-7-7-7-7-7-7-|   
   I Make The Good Girls Go Bad. . .
G|---------|
D|---------|
A|---------|
E|-7-7-7-7-|   

G|-----------------------------------------------------------------------|
D|-----------------------------------------------------------------------|
A|-----------------------------------------------------------------------|
E|-5-5-5-5-5-5-5-3-3-3-3-3-3-3-5-5-5-5-5-5-5-3-3-3-3-3-3-3-4-4-4-4-4-4-4-|
   I Heard That You Were Trouble. . .
G|---------|
D|-7-5-7-5-|
A|---------|
E|---------|


3rd Verse
G|-------------------------------------------------------------------|
D|-------------------------------------------------------------------|
A|-------------------------------------------------------------------|
E|-5-5-5-5-5-5-5-3-3-3-3-3-3-3-4-4-4-4-4-4-4-5-5-5-5-5-5-5-3-3-3-3-3-|
   Hey! Hey! Hey!. . .

Rest

3rd Chorus
G|-------------------------------------------------|
D|-------------------------------------------------|
A|-------------------------------------------------|
E|-5-5-5-5-5-5-5-5-3-3-3-3-3-3-3-3-4-4-4-4-4-4-4-4-|
 . . .Go BAAAAADDDDD!

G|-----------------------------------------------------------|
D|-----------------------------------------------------------|
A|-----------------------------------------------------------|
E|-7-7-7-7-7-7-7-7-7-7-7-7-7-7-7-5-5-5-5-5-5-5-3-3-3-3-3-3-3-|
   I Was Hanging In The Corner. . .

G|---------------------------------------------------------------------|
D|---------------------------------------------------------------------|
A|---------------------------------------------------------------------|
E|-5-5-5-5-5-5-5-3-3-3-3-3-3-3-4-4-4-4-4-4-4-5-5-5-5-5-5-5-3-3-3-3-3-3-|     
   I Make The Good Girls Go Bad. . .
G|----------------------|
D|---------------7-5-7-5|
A|----------------------|
E|-4-4-4-4-4-4-4--------|

G|---------------------------------------------------------|
D|---------------------------------------------------------|
A|---------------------------------------------------------|
E|-5-5-5-5-5-5-5-3-3-3-3-3-3-3-4-4-4-4-4-4-4-5-5-5-5-5-5-5-|

Hope this will help!
P.S. I didn't have enough room to squeeze everything together, so hopefully you 
won't get confused.

            
            
Suggest correction
Creating personal tab
Creating personal tab
You can edit any tab online and save it as your Personal.

You can edit, replace or remove any tab part or add personal notes – all changes will be seen only by you.

Personal tabs can be accessed anytime from any device, even offline.
Learn more »
Give kudos to tab author, rate the tab!
1 2 3 4 5
comments
print report bad tab
guest
Wanna post a correction for this tab? Suggest correction