Oops, an error
Loading. Please wait.

Living In The Sky With Diamonds bass

1,008 views 1 this week
1 commentread comment
1 2 3 4 5
1 last vote to show rating
add to favorites
×
Save as Personal and add changes to this tab that will be seen only by you. Learn more ›
×
You can save this tab as Personal to edit and correct it or add notes. All changes will be seen only by you. Learn more »
launch autoscroll
font size
0
reset
guitar tuner
edit
Autoscroll
slow
fast
+/-
esc
set tempo
stop
-------------------------------------------------------------------------------
			     cobra starship - living in the sky with diamonds
-------------------------------------------------------------------------------

Tabbed By : Valerie L
e-mail: queefist@yahoo.com
Tuning: standard

verse
G|------------------|
D|------------------|
A|00000000-----3333-|
E|---------1111----3| x7  

"and oh here she comes.."
G|----------------|
D|----------------|
A|5555555555555555|
E|----------------|

chorus "she's dancing with the stars"
G|------------------------------------|
D|------------------------------------|
A|---------33333333----------55555555-|
E|11111111----------33333333----------| x2

G|-------------------------------------|
D|-------------------------------------|
A|---------33333333--------------------|
E|11111111----------33333333-5555-3333-|

G|----------------------------------------|
D|--------------------5--5--5--5--5--5----|
A|---------33333333-----------------------|
E|11111111----------3--3--3--3--3--3--333-|

verse "you can't change her.."
G|------------------|
D|------------------|
A|00000000-----3333-|
E|---------1111----3| x7  

"and oh here she comes.."
G|----------------|
D|----------------|
A|5555555555555555|
E|----------------|

chorus "she's dancing with the stars"
G|------------------------------------|
D|------------------------------------|
A|---------33333333----------55555555-|
E|11111111----------33333333----------| x2

G|-------------------------------------|
D|-------------------------------------|
A|---------33333333--------------------|
E|11111111----------33333333-5555-3333-|

G|----------------------------------------|
D|--------------------5--5--5--5--5--5----|
A|---------33333333-----------------------|
E|11111111----------3--3--3--3--3--3--3333|

bridge "you're the talk of the town.."
G|--------------------------------|
D|--------------------------------|
A|5---0---0-0-0-05---0--0-0-0-0-0-|
E|--3--------------3--------------|

repeat this 2x:
chorus "she's dancing with the stars"
G|------------------------------------|
D|------------------------------------|
A|---------33333333----------55555555-|
E|11111111----------33333333----------| x2

G|-------------------------------------|
D|-------------------------------------|
A|---------33333333--------------------|
E|11111111----------33333333-5555-3333-|

G|----------------------------------------|
D|--------------------5--5--5--5--5--5----|
A|---------33333333-----------------------|
E|11111111----------3--3--3--3--3--3--3333|

            
            
Suggest correction
Creating personal tab
Creating personal tab
You can edit any tab online and save it as your Personal.

You can edit, replace or remove any tab part or add personal notes – all changes will be seen only by you.

Personal tabs can be accessed anytime from any device, even offline.
Learn more »
Give kudos to tab author, rate the tab!
1 2 3 4 5
comments
print report bad tab
1 comment total.
0 reply
29Jeff96 10 Oct 02, 2009 09:50 PM

Oh, I do hope you plan to Tab Fold Your Hand's Child :)

every single song you've tabbed has been perfect.

guest
You may want to rate the tab now too:
select rating
Wanna post a correction for this tab? Suggest correction