Oops, an error
Loading. Please wait.

Smile For The Paparazzi tab

version 2
version 2

Whole song

3,703 views 1 this week
2 commentsread comments
1 2 3 4 5
2 more votes to show rating
add to favorites
×
Save as Personal and add changes to this tab that will be seen only by you. Learn more ›
×
You can save this tab as Personal to edit and correct it or add notes. All changes will be seen only by you. Learn more »
launch autoscroll
font size
0
reset
how to read this tab
guitar tuner
edit
Autoscroll
slow
fast
+/-
esc
set tempo
stop
Author
Difficulty
Smile For the paparazzi - Cobra Starship


intro- just strum once

e|----|
B|----|
G|----|
D|-11-|
A|-11-|
E|-9--|


Verse consists of these two chords:

e|---------------|
B|---------------|
G|-11---10-------|
D|-11---10-------|
A|-9----8--------|
E|---------------|



Chorus

B|-------------------------|
G|-----7-6-----------------|
D|-4-7-7-6-----------------|
A|-4-7-5-4-----------------|
E|-2-5---------------------|

The paparazzi bit

B|---------------|
G|------4--------|
D|-7----4--------|
A|-7----2--------|
E|-5-------------|


I couldn't work out the solo.
I will try later.


Any problems with the tab email me at grayscalejunior@btinternet.com

            
            
Suggest correction
Creating personal tab
Creating personal tab
You can edit any tab online and save it as your Personal.

You can edit, replace or remove any tab part or add personal notes – all changes will be seen only by you.

Personal tabs can be accessed anytime from any device, even offline.
Learn more »
Give kudos to tab author, rate the tab!
1 2 3 4 5
comments
print report bad tab
2 comments total.
0 reply
deet 64 Jan 28, 2008 12:43 PM

I actually think the acoustic intro goes like

e|--1-----0----|
B|--1-----0----|
G|--2-----1----|
D|--3-----2----|
A|--3-----2----|
E|--1-----0----|

instead of
e|---------------|
B|---------------|
G|-11---10-------|
D|-11---10-------|
A|-9----8--------|
E|---------------|

0 reply
Sam Rulez D00d 948 Jan 19, 2009 01:17 PM

i think the chords are:
|-2--1-|
|-2--2-|
|-2--2-|
|-4--3-|
|-4--4-|
|------|
I could be wrong...though.

guest
You may want to rate the tab now too:
select rating
Wanna post a correction for this tab? Suggest correction